Cifra Club

The Next Episode San Holo Remix

Dr. Dre

Cifrado: Principal (guitarra y guitarra eléctrica)
Selo Cifra Club: esta cifra foi revisada para atender aos critérios oficiais da nossa Equipe de Qualidade.
tono: G
E|------------------------------------------------------------------------------|
B|---------15--15--15--15--13--12--10------------15--15--15--15/17--------------|
G|-16--12-------------------------------12--12----------------------16----------|
D|------------------------------------------------------------------------------|
A|------------------------------------------------------------------------------|
E|------------------------------------------------------------------------------|

E|------------------------------------------------------------------------------|
B|---------15-15-15-15-13-12-10-10/12-10-----10/12-10-------15-15-15-15-13-12-10|
G|-12--12---------------------------------12-----------16-12--------------------|
D|------------------------------------------------------------------------------|
A|------------------------------------------------------------------------------|
E|------------------------------------------------------------------------------|

E|------------------------------------------------------------------------------|
B|---------15--15--15--15/17-----------15-15-15-15-13-12-10-10/12-10----10/12-10|
G|-12--12--------------------16--12-12-------------------------------12---------|
D|------------------------------------------------------------------------------|
A|------------------------------------------------------------------------------|
E|------------------------------------------------------------------------------|

E|----19-19-17-19-17-15-17-17-15-14-15-------19-19-17-19-17-15-17-17-15-14-15---|
B|-17----------------------------------17-17----------------------------------17|
G|------------------------------------------------------------------------------| x2
D|------------------------------------------------------------------------------|
A|------------------------------------------------------------------------------|
E|------------------------------------------------------------------------------|
Otros videos de esta canción
    2 exhibiciones
      • ½ Tono
      • A
      • Bb
      • B
      • C
      • Db
      • D
      • Eb
      • E
      • F
      • F#
      • G
      • Ab
    • Agregar a la lista

    Afinação da cifra

    Afinador online

      Ops (: Contenido disponible solo en portugués.
      OK