Cifra Club

Chala Head Chala

Dragon Ball Z

Tablatura: Principal
reproducciones 10.927
Tono: A
E|--------------------------------------------------------|
B|---------------------------------------0-1-3-1-0h1------|
G|--------------------9~-------9~-----0-2-----------2/4~--|
D|-/7-6-6-9-7-6-9-9-7----9-9-7----2h4---------------------|
A|--------------------------------------------------------|
E|--------------------------------------------------------|

E|--------------------------------------------------------|
B|---------------------------------------0-1-3-1-0h1------|
G|--------------------9~-------9~-----0-2-----------2/4~--|
D|-/7-6-6-9-7-6-9-9-7----9-9-7----2h4---------------------|
A|--------------------------------------------------------|
E|--------------------------------------------------------|

E|------------------------------------------------------------------|
B|------------------------------------------------------------------|
G|-6~-1-6-4-2-1---1-------1~----------------------------------------|
D|--------------4---4-2-4------2-7-6-2--7-6-2-12^-2-7-6-2-7-6-7-9-9~|
A|------------------------------------------------------------------|
E|------------------------------------------------------------------|

E|---------------------------------------------------------------------|
B|---------------------------------------------------------------------|
G|---------------------------------------------------------------------|
D|-12-14~~-12-12-14-14-14~-16-17-16-14-16-17-16-14-12^~-17-16-14-12-14~|
A|---------------------------------------------------------------------|
E|---------------------------------------------------------------------|

E|---------------------------------------------------------------------|
B|---------------------------------------------------------------------|
G|---------------------------------------------------------------------|
D|-12-14~~-12-12-14-14-14~-16-17-16-14-16-17-16-14-12^-8-12-14-14-14-14|
A|---------------------------------------------------------------------|
E|---------------------------------------------------------------------|
Acordes para:
    Compositor: Dragon Ball ZColaboración y revision:
    • estevao marques
    • mestre shogun

    0 comentarios

      mostrar más comentarios

      ¿Conseguiste tocar?

      9tocaron1aún no

      ¡Graba un vídeo tocando Chala Head Chala y envianoslo!

      00:00 / 00:00
      outros vídeos desta música
      repetirqualidadeautomática
      Outro vídeos desta música
        00:00 / 00:00
        automática
        OK