Cifra Club

Avant La Tempete

DragonForce

Tablatura: Principal (guitarra)
Tom: D
Guitar Solo:
E|----------------------------------|
B|----------------------------------|
G|----------------------------------|
D|-----11-----12--11--9--9--11/7~---|
A|--9------9------------------------|
E|----------------------------------|

E|-----------------------------------|
B|-----------------------------------|
G|-----------------------------------|
D|--4--6--6\7--6--9--7--6--2--2h4----|
A|-----------------------------------|
E|-----------------------------------|

E|----------------------------------|
B|----------------------------------|
G|----------------------------------|
D|-----11-----12--11--9--9--11--7~--|
A|--9------9------------------------|
E|----------------------------------|

E|-----------------------------------|
B|-----------------------------------|
G|-----------------------------------|
D|--4--6--6\7--6--9--7--6--4---------|
A|----------------------------7--7h9-|
E|-----------------------------------|

E|--------------------------------------------------------------------|
B|----------------------------------------------10-12--15--17--14~~---|
G|--------------------------------------9-11-12-----------------------|
D|-\11--9--11--9--11-------------9-11-12------------------------------|
A|--------------------9---9-11-12-------------------------------------|
E|--------------------------------------------------------------------|

E|---------------------------------------------------------------------|
B|--14--19--14--17--14--15-15---17--14--12--14--10--9--10--7--5--7-----|
G|------------------------------------------------------------------6--|
D|---------------------------------------------------------------------|
A|---------------------------------------------------------------------|
E|---------------------------------------------------------------------|

E|-------------------------------|
B|-------------------------------|
G|-------4--6--2~----------------|
D|-------------------------------|
A|-------------------------------|
E|-------------------------------|

E|------------------------------------|
B|--7--7--9--10-----------------------|
G|---------------7--7--9--9\11--------|
D|------------------------------------|
A|------------------------------------|
E|------------------------------------|

E|-------------7---\14-------------------------------|
B|------7--------------14----------------------------|
G|--\6----6-7-------------14-------------------------|
D|---------------------------16----------------------|
A|------------------------------16-12-11-9-9h11------|
E|---------------------------------------------------|

E|-------------------------------|
B|--------------------9~---------|
G|-------------10----------------|
D|----------------11-------------|
A|--9h11-8--11-------------------|
E|-------------------------------|

E|----------------------------------|
B|----------------------------------|
G|----------------------------------|
D|-----11-----12--11--9--9--11--7~--|
A|--9------9------------------------|
E|----------------------------------|

E|-----------------------------------|
B|-----------------------------------|
G|-----------------------------------|
D|--4--6--6\7--6--9--7--6--4---------|
A|----------------------------7--7h9-|
E|-----------------------------------|

E|----------------------------------9--9\10-9----------------------|
B|---------------------10----------------------12-10-12-12pb14-10--|
G|----------------9-11----11-9-------------------------------------|
D|---------7-9\11---------------11---------------------------------|
A|--7-9-11---------------------------------------------------------|
E|-----------------------------------------------------------------|

E|-------------------------------------------------|
B|--7--9--9\10--9--10\12--10--9---5--5h7-----------|
G|-----------------------------------------7--4--6-|
D|-------------------------------------------------|
A|-------------------------------------------------|
E|-------------------------------------------------|

E|--5---5---5---4---4---4----2---2----2------------------------------|
B|----2---2---2---2---2---2-----------------6---6---6---7---7---7----|
G|-----------------------------2----2----2----3---3---3---4---4---4--|
D|-------------------------------------------------------------------|
A|-------------------------------------------------------------------|
E|-------------------------------------------------------------------|

E|-----------------------------------------|
B|--\7--5--3--3h5--2-----------------------|
G|--------------------1--4-----------------|
D|-------------------------3--\6--\9--\11--|
A|-----------------------------------------|
E|-----------------------------------------|

E|------------------4--6------------|
B|---9~-----------------------------|
G|--10~------6--7----------7--6-----|
D|--11~-----------------------------|
A|---9~-----------------------------|
E|----------------------------------|
reproducciones 263
Acordes para:
    Colaboración y revision:
    • Gabriel Lauria
    • Gilmar Locatelli

    0 comentarios

    mostrar más comentarios

    ¿Conseguiste tocar?

    4 tocaron 0 aún no

    ¡Graba un vídeo tocando Avant La Tempete y envianoslo!

    00:00 / 00:00
    outros vídeos desta música
    repetir qualidade Automático
    Outros vídeos desta música
    00:00 / 00:00
    Automático
    OK