Cifra Club

Body Breakdown Solo

DragonForce

Tablatura: Principal (guitarra)
Tom: C
This is the solo at 3:40 - 4:02 of the song, Enjoy!

H = Harmonic.
/\ = Slides.
b = Bend.

 [Chopping Pedal Effect]                                                                       
|--17-17-17-17-17-17-H17(whammy dive)|
|------------------------------------|
|------------------------------------|
|------------------------------------|
|------------------------------------|
|------------------------------------|
                                                   
------------------------------|------------------------|
---15-15-15-15----13----------|--------------------12--|
----------------------16-H12~-|----------------12------|
------------------------------|------------12----------|
------------------------------|------------------------|
------------------------------|------------------------|
                                                        
--------------------------------|----------------------|
-/12--15--15--15----13----------|---------H12~---------|
------------------------16-H12--|---H14----------------|
--------------------------------|----------------------|
--------------------------------|----------------------|
--------------------------------|----------------------|
                                                             
--------------15--17--15--17(19)b-|------15--22~---------|
-15---15--17----------------------|----------------------|
---16-----------------------------|----------------------|
----------------------------------|----------------------|
----------------------------------|----------------------|
----------------------------------|----------------------|

    [Sweep Picking]                                             
--22-19----------19-22-20-17----------17-20--19-|
--------20----20-------------19----19-----------|
-----------19-------------------19--------------|
------------------------------------------------|
------------------------------------------------|
------------------------------------------------|
                                       
--15----------15-19---19-17-15----15----|
-----15----15------------------19-------|
--------16------------------------------|
----------------------------------------|
----------------------------------------|
----------------------------------------|

       [Accurate Picking:]                                            
--22-19----------19-22-19----------19-22-19-------|
--------20-19-20----------20-19-20----------20-19-|
--------------------------------------------------|
--------------------------------------------------|
--------------------------------------------------|
--------------------------------------------------|
                                                 
-----19-22-19----------19-22----22----19--------|
--20----------20-19-20-------20----20----20-19--|
------------------------------------------------|
------------------------------------------------|
------------------------------------------------|
------------------------------------------------|
                                                  
--17-14----------14-17-14----------14-17-14-------|
--------15-13-15----------15-13-15----------15-13-|
--------------------------------------------------|
--------------------------------------------------|
--------------------------------------------------|
--------------------------------------------------|
                                                 
-----14-17-14-10-------14-17----17----14--------|
--15-------------13-15-------15----15----15-13--|
------------------------------------------------|
------------------------------------------------|
------------------------------------------------|
------------------------------------------------|

             [Sweep:]                                      
--17-14----------------------14-17-14-------------|
--------15----------------15----------17-15-13-12-|
-----------14----------14-------------------------|
--------------16----16----------------------------|
-----------------17-------------------------------|
--------------------------------------------------|
                                             
--------------------------------------------|
--15---------------------------------H15----|
-----15-14-12-15-14-12----12----------------|
-----------------------14----14-12-14-------|
--------------------------------------------|
--------------------------------------------|

            [Sweep:]                                   
--19-15----------------15-19-17-19--20-19-20--|
--------15----------15------------------------|
-----------16----16---------------------------|
--------------17------------------------------|
----------------------------------------------|
----------------------------------------------|
                                                            
--22------20------19------15--17--|
------15------15------15----------|
----------------------------------|
----------------------------------|
----------------------------------|
----------------------------------|
reproducciones 39
Acordes para:
    Composição: Herman Li / Sam Totman / Vadim Pruzhanov Colaboración y revision:
    • Taino Vieira

    0 comentarios

    mostrar más comentarios

    ¿Conseguiste tocar?

    0 tocaron 0 aún no

    ¡Graba un vídeo tocando Body Breakdown Solo y envianoslo!

    00:00 / 00:00
    outros vídeos desta música
    repetir qualidade Automático
    Outros vídeos desta música
    00:00 / 00:00
    Automático
    OK