Cifra Club

Cry Of The Brave

DragonForce

Tablatura: Principal (guitarra)
Tom: D
*A música é com guitarra de 7 cordas BEADGBE

Intro:
Hernam Li:
E|--------------14----------17-16-14----14-16-16^--|------------------------------------------------|
B|-----14-12-14----15-14-15----------15------------|--------------17-14----14----14----14----14-----|
G|--11---------------------------------------------|-----16-14-16-------16----14----13----11--------|
D|-------------------------------------------------|--14----------------------------------------14--|
A|-------------------------------------------------|------------------------------------------------|
E|-------------------------------------------------|------------------------------------------------|

Sam:
E|--------------------------14---------------------|--------------------------------------------------|
B|--------------15-------------17-15----15-17-17^--|--------------14----------------------------------|
G|-----14-13-14----16-14-16----------16------------|-----13-11-13----14-13-14----14----14----14-------|
D|--12---------------------------------------------|--11----------------------16----14----12----11~~--|
A|-------------------------------------------------|--------------------------------------------------|
E|-------------------------------------------------|--------------------------------------------------|

Hernam Li:
E|--------------------------------------------14--|---------------------------------------------14--|
B|--------------15----------17-------------12-----|--------------14---------------------------------|
G|-----14-13-14----16-14-16----16-14-13-14--------|-----16-14-16----16-14-13--14-16-14-13-----------|
D|--12--------------------------------------------|--14-----------------------------------16-14-----|
A|------------------------------------------------|-------------------------------------------------|
E|------------------------------------------------|-------------------------------------------------|

Sam:
E|-------------------------------------------------|----------------------------------------------|
B|---------------------------------------------15--|--------------10--------------------------15--|
G|--------------16-----------18-------------13-----|-----13-11-13----13-11-9-11-13-11-9-----------|
D|-----16-14-16----18-16-18-----18-16\14-16--------|--11--------------------------------12-11-----|
A|--14---------------------------------------------|----------------------------------------------|
E|-------------------------------------------------|----------------------------------------------|

Hernam Li:
E|--------------14----------17-16-17p16h17p14----14-16-17--|
B|-----14-12-14----15-14-15-------------------15-----------|
G|--11-----------------------------------------------------|
D|---------------------------------------------------------|
A|---------------------------------------------------------|
E|---------------------------------------------------------|

E|---------------------------------------------------|
B|--------------17-14----14----------------------21--|
G|-----16-14-16-------16----14-18-14p13-16-13p11-----|
D|--14-----------------------------------------------|
A|---------------------------------------------------|
E|---------------------------------------------------|

Sam:
E|----------------------------------------------------------|
B|--------------15-----------19-17h19p17h19p15----15-17-19--|
G|-----14-13-14----16-14-16--------------------16-----------|
D|--12------------------------------------------------------|
A|----------------------------------------------------------|
E|----------------------------------------------------------|

E|----------------------------------------------------------|
B|--------------14--------------------------------------14--|
G|-----13-11-13----14-13-14----11--14-11p9--13-9p7-11-7-----|
D|--11------------------------------------------------------|
A|----------------------------------------------------------|
E|----------------------------------------------------------|

Hernam Li:
E|-----------------------------------------------------------|
B|--------------15----------12^^-----------------------12^^--|
G|-----14-13-14----16-14-16-----14^^-12^^-12^-12^^-14^^------|
D|--12-------------------------------------------------------|
A|-----------------------------------------------------------|
E|-----------------------------------------------------------|

E|-----------------------------12------------------------------------------------|
B|--------------------12-14-15----15-14-12-----------12----------------------14--|
G|-----------11-13-14----------------------14-13-11-----14-13-11-14-13-11--------|
D|--11-12-14--------------------------------------------------------------14-----|
A|-------------------------------------------------------------------------------|
E|-------------------------------------------------------------------------------|

Sam:
E|----------------------------------------------------|
B|----------------------------------------------------|
G|--------------16-----------14-----------------------|
D|-----16-14-16----18-16-18-----18-16-14-16-18-16~~~--|
A|--14------------------------------------------------|
E|----------------------------------------------------|

E|------------------------------------------------------------------------------------|
B|-----------------------------14---------------------------------------------15/-----|
G|--------------------13-14-16----16-14-13------------13-11-------11------------------|
D|-----------12-14-16----------------------16-14-12---------14-12----14-12-11-----11--|
A|--12-14-16--------------------------------------------------------------------------|
E|------------------------------------------------------------------------------------|
reproducciones 74
Acordes para:
    Composição: DragonForce Colaboración y revision:
    • Taino Vieira

    0 comentarios

    mostrar más comentarios

    ¿Conseguiste tocar?

    0 tocaron 0 aún no

    ¡Graba un vídeo tocando Cry Of The Brave y envianoslo!

    00:00 / 00:00
    outros vídeos desta música
    repetir qualidade Automático
    Outros vídeos desta música
    00:00 / 00:00
    Automático
    OK