Cifra Club

Evening Star

DragonForce

Tab de bajo: Principal
Tempo is a quick one try and keep up.. bass enters at 34 seconds in..

G  :----------------------------------------|
D  :------------3---------------------------|
A  :5-5-5-5-5-5---5-3-1-1-1-1-1-1-1-1-1-1-1-|
E  :----------------------------------------|

G  :--------------------------------------|
D  :------------2-------------------------|
A  :3-3-3-3-3-3---3-1-0-0-0-0-0-0-0-0-0---|
E  :--------------------------------------|

G  :------------------------------------------|
D  :------------------------------------------|
A  :1-1-1-1-1-1-1-1-1---5-5-5-5-5-5-5-5-5-5-5-|
E  :------------------------------------------|

G  :--------------------3-5-5-5-5-5-5-3-5-5-3-0-|
D  :--------------------------------------------|
A  :3-3-3-3-3-3-3-3-3-3-------------------------|
E  :--------------------------------------------|

G  :-----------------------------------------------------------|
D  :------------------3-3--------------------------------------|
A  :3-5-5-5-5-5-5-5-5-----5-5-3-3-1-1-1-1-1-1-1-1-1-1-1-1-1-1-1|
E  :-----------------------------------------------------------|

G  :-----------------------------------------------------------|
D  :------------------2-2--------------------------------------|
A  :3-3-3-3-3-3-3-3-3-----3-3-1-1-0-0-0-0-0-0-0-0-0-0-0-0-0-0-0|
E  :-----------------------------------------------------------|

G  :-----------------------------------------------------|
D  :-----------------------------------------------------|
A  :1-1-1-1-1-1-1-1-1-1-1-1-1-1-1-5-5-5-5-5-5-5-5-5-5-5--|
E  :-----------------------------------------------------|

G  :---------------------------------|--------------------------------|
D  :---------------------------------|--------------------------------|
A  :8-------7---0---5---*------------|--------------------------------|
E  :---------------------------------|--------------------------------|

G  :---------------------------------|
D  :---------------------------------|
A  :---------------------------------|
E  :---------------------------------|

G  :--------------------7-9-9-9-9-9-9-9-9-9-|
D  :----------------------------------------|
A  :----------------------------------------|
E  :0-0-0-0-0-0-0-0-0-0---------------------|

G  :----------------------------------------|
D  :----------------------------------------|
A  :------------------------------2-0-------|
E  :3-3-3-3-5-5-5-5-3-3-3-5-5-5-5-----3-2-0-|

G  :----------------------------------------|
D  :----------------------------------------|
A  :----------------------------------------|
E  :0-0-0-0-0-0-0-0-0-0-5-7-7-7-5-7-7-7-7-7-|

G  :----------------------------------------|
D  :----------------------------------------|
A  :------------------------------2-0-------|
E  :3-3-3-3-2-2-2-2-3-3-3-5-5-5-5-----3-2-0-|

G  :--------------------7-9-9-9-7-9-9-9-9-9-|
D  :----------------------------------------|
A  :----------------------------------------|
E  :0-0-0-0-0-0-0-0-0-0---------------------|

G  :----------------------------------------|
D  :----------------------------------------|
A  :------------------------------2-0-------|
E  :3-3-3-3-2-2-2-2-3-3-3-5-5-5-5-----3-2-0-|

G  :----------------------------------------|
D  :----------------------------------------|
A  :3-3-3-3-3-3-3-3-3-3-5-5-5-5-5-5-5-5-5-5-|
E  :----------------------------------------|

G  :--------------------------------------|
D  :--------10---9-7-9---------10---9-7---|
A  :7-7-7-7------------7-7-7-7----------9-|
E  :--------------------------------------|

G  :--------------------------------------|
D  :--------------------------------4-----|
A  :3-3-3-3-3-3-3-3-3-3-5-5-5-5-5-5---5-3-|
E  :--------------------------------------|

G  :----------------------------------|
D  :----------4---4-------------------|
A  :2-2-2-2-2---2---3--2--0-----------|
E  :-------------------------3--2--0--|

G  :--------------------------------------------------|
D  :--------------------------------------------------|
A  :7-7-7-7-7-7-7-7-7-7-7-7-7-5-7-7-7-7-7-7-7-7-7-5---|
E  :--------------------------------------------------|

G  :--------------------------------------------------|
D  :--------------------------------------------------|
A  :7-7-7-7-7-7-7-7-7-7-7-7-7-5-7-7-7-7-7-7-7-7-7-5---|
E  :--------------------------------------------------|

G  :--------------------------------------------------|
D  :--------------------------------------------------|
A  :7-7-7-7-7-7-7-7-7-7-7-7-7-5-7-7-7-7-7-7-7-7-7-5---|
E  :--------------------------------------------------|

G  :------------5----------------7---|
D  :----------5----------------7-----|
A  :3-3-3-3-3--------5-5-5-5-5-------|
E  :---------------------------------|

G  :--------------------------------------------------|
D  :--------------------------------------------------|
A  :7-7-7-7-7-7-7-7-7-7-7-7-7-5-7-7-7-7-7-7-7-7-7-5---|
E  :--------------------------------------------------|

G  :--------------------------------------------------|
D  :--------------------------------------------------|
A  :7-7-7-7-7-7-7-7-7-7-7-7-7-5-7-7-7-7-7-7-7-7-7-5---|
E  :--------------------------------------------------|

G  :----------------------------------------------|
D  :----------------------------------------5-----|
A  :7-7-7-7-7-7-7-7-7-7-7-7-7-5-7-7-7-7-7-7---7-5-|
E  :----------------------------------------------|

G  :------------5-------------------|--------------------------------|
D  :----------5-------------7-------|--------------------------------|
A  :3-3-3-3-3-------5-5-5-5---7-5---|0-0-0-0-0-0-0-0-0-0-0-0-0-2-3-0-|
E  :------------------------------5-|--------------------------------|

G  :---------------------------7-9-9-9-9-|--------------------------------|
D  :2-2-2-2-2-10-9-7-9-2-2-2-2-----------|--------------------------------|
A  :-------------------------------------|0-0-0-0-0-0-0-0-0-0-0-0-0-0-0-0-|
E  :-------------------------------------|--------------------------------|

G  :------------------------------------|
D  :------------------------------------|
A  :3-3-3-3-3-3-5-3-3-2-2-2-2-2-2-2-2-2-|
E  :------------------------------------|

G  :------------------------------------------------|
D  :------------------------------------------------|
A  :7-7-7-7-7-7-7-7-7-7-7-7-5-5-5-5-5-5-5-5-5-5-5-5-|
E  :------------------------------------------------|

G  :-------------------------------------------------------|
D  :------------------------5-5-5-5-5-5-5-5-4-4-4-4-4-4-4-4|
A  :3-3-3-3-3-3-3-3-3-3-3-3--------------------------------|
E  :-------------------------------------------------------|

G  :----------------------------------------|
D  :--------------5-4-----------------4-----|
A  :7-7-7-7-7-7-7-----7-5-5-5-5-5-5-5---7-5-|
E  :----------------------------------------|

G  :----------------------------------------------|
D  :----------------------------------------4-----|
A  :3-3-3-3-3-3-3-3-3-3-3-3-3-3-3-3-3-3-3-3---5-3-|
E  :----------------------------------------------|

G  :------------------------------------|--------------------------------|
D  :--------------4---------------------|--------------------------------|
A  :2-2-2-2-2-2-2---2-2-2---------------|7---*---------------------------|
E  :------------------------------------|0---*---------------------------|

G  :-----------------------------------------------------------------|
D  :-----------------------------------------------------------------|
A  :7---*--------------------------10--------------------------------|
E  :0---*------------------------------------------------------------|

G  :--------------------------------------------------|
D  :--------------------------------------------------|
A  :----------------------------------------------2-2-|
E  :3-3-3-3-3-3-3-3-3-3-3-3-3-3-3-3-3-3-3-3-3-3-3-----|

G  :--------------------------------|--------------------------------|
D  :--------------------------------|--------------------------------|
A  :5-5-5-3-5-5-5-5-3-5-5-5-5-5-3-5-|7-7-7-7-7-7-7-7-5-5-5-5-5-5-5-5-|
E  :--------------------------------|--------------------------------|

G  :--------------------------------|--------------------------------|
D  :--------------5-----------------|--------------------------------|
A  :3-3-3-3-3-5-7-------------------|3-3-3-3-3-3-3-3-5-5-5-5-5-5-5-5-|
E  :----------------3-3-3-3-3-3-3-3-|--------------------------------|

G  :--------------------------------|--------------------------------|
D  :--------------------------------|--------------------------------|
A  :--------------------------------|----------------5-5-5-5-5-5-5-5-|
E  :3-3-3-3-3-3-3-3-3-3-3-3-3-3-3-3-|3-3-3-3-3-3-3-3-----------------|

G  :--------------------------------|--------------------------------|
D  :--------------5-----------------|--------------------------------|
A  :3-3-3-3-3-3-5-------------------|3-3-3-3-3-3-3-3-5-5-5-5-5-5-5-5-|
E  :----------------3-3-3-3-3-3-3-3-|--------------------------------|

G  :--------------------------------|
D  :--------------------------------|
A  :--------------------------------|
E  :3-3-3-3---3-3---3-3-3-3---------|

G  :--------------------------------------------|
D  :--------------5-----------------------------|
A  :7-7-7-7-7-7-7---7-5-3-3-3-3-3-3-3-3-3-3-3-3-|
E  :--------------------------------------------|

G  :--------------------------------------------|
D  :--------------4-----------------------------|
A  :5-5-5-5-5-5-5---5-3-2-2-2-2-2-2-2-2-2-2-2-2-|
E  :--------------------------------------------|

G  :------------------------------------------------|
D  :------------------------------------------------|
A  :3-3-3-3-3-3-3-3-3-3-3-3-7-7-7-7-7-7-7-7-7-7-7-7-|
E  :------------------------------------------------|

G  :------------------------5-7-7-7-7-5-7-7-7-7-5-5-|
D  :------------------------------------------------|
A  :5-5-5-5-5-5-5-5-5-5-5-5-------------------------|
E  :------------------------------------------------|

G  :-----------------------------------------------------------|
D  :------------------5-5--------------------------------------|
A  :7-7-7-7-7-7-7-7-7-----7-7-5-5-3-3-3-3-3-3-3-3-3-3-3-3-3-3-3|
E  :-----------------------------------------------------------|

G  :-----------------------------------------------------------|
D  :------------------4-4--------------------------------------|
A  :5-5-5-5-5-5-5-5-5-----5-5-3-3-2-2-2-2-2-2-2-2-2-2-2-2-2-2-2|
E  :-----------------------------------------------------------|

G  :-----------------------------------------------------------|
D  :-----------------------------------------------------------|
A  :3-3-3-3-3-3-3-3-3-3-3-3-3-7-7-7-7-7-7-7-7-7-7-7-7-7-7-7-7-7|
E  :-----------------------------------------------------------|

G  :--------------7---12--------------|
D  :----------7--------------12-------|
A  :5---5---5-------------------------|
E  :----------------------------------|

G  :--------------------------------------------------|
D  :--------------------------------------------------|
A  :7-7-7-7-7-7-7-7-7-7-7-7-7-7-7-7-7-7-7-7-7-7-7-7-7-|
E  :--------------------------------------------------|

G  :--------------------------------------------------|
D  :--------------------------------------------------|
A  :7-7-7-7-7-7-7-7-7-7-7-7-7-7-7-7-7-7-7-7-7-7-7-5---|
E  :--------------------------------------------------|

G  :-------------------------------------------------|
D  :-------------------------------------------------|
A  :7-7-7-7-7-7-7-7-7-7-7-7-7-5-7-7-7-7--7-7-7-7-7-7-|
E  :-------------------------------------------------|

G  :------------5----------------7--|
D  :----------5----------------7----|
A  :3-3-3-3-3--------5-5-5-5-5------|
E  :--------------------------------|

G  :-------------------------------------------------|
D  :-------------------------------------------------|
A  :7-7-7-7-7-7-7-7-7-7-7-7-7-5-7-7-7-7-7-7-7-7-7-7--|
E  :-------------------------------------------------|

G  :-------------------------------------------------|
D  :-------------------------------------------------|
A  :7-7-7-7-7-7-7-7-7-7-7-7-7-5-7-7-7-7-7-7-7-7-5----|
E  :-------------------------------------------------|

G  :---------------------------------------------|
D  :--------------------------------------5------|
A  :7-7-7-7-7-7-7-7-7-7-7-7-7-5-7-7-7-7-7---7-5--|
E  :---------------------------------------------|

G  :------------5-------------------|--------------------------------|
D  :----------5-------------7-------|--------------------------------|
A  :3-3-3-3-3-------5-5-5-5---7-5---|0-0-0-0-0-0-0-0-0-0-0-0-0-2-3-0-|
E  :------------------------------5-|--------------------------------|

G  :--------------------------7-9-9-12-9-|--------------------------------|
D  :2-2-2-2-2-7-7-7-7-2-2-2-2------------|--------------------------------|
A  :-------------------------------------|0-0-0-0-0-0-0-0-0-0-0-0-0-0-0-0-|
E  :-------------------------------------|--------------------------------|

G  :------------------------------------|
D  :------------------------------------|
A  :3-3-3-3-3-3-5-3-3-2-2-2-2-2-2-2-2-2-|
E  :------------------------------------|

G  :------------------------------------------------|
D  :------------------------------------------------|
A  :7-7-7-7-7-7-7-7-7-7-7-7-5-5-5-5-5-5-5-5-5-5-5-5-|
E  :------------------------------------------------|

G  :------------------------4-4-4-4-4-4-4-4-2-2-2-2-4-4-2-2|
D  :-------------------------------------------------------|
A  :3-3-3-3-3-3-3-3-3-3-3-3--------------------------------|
E  :-------------------------------------------------------|

G  :----------------------------------------|
D  :--------------5-4-----------------4-----|
A  :7-7-7-7-7-7-7-----7-5-5-5-5-5-5-5---7-5-|
E  :----------------------------------------|

G  :----------------------------------------------|
D  :----------------------------------------4-----|
A  :3-3-3-3-3-3-3-3-3-3-3-3-3-3-3-3-3-3-3-3---5-3-|
E  :----------------------------------------------|

G  :------------------------------------|--------------------------------|
D  :--------------4---------------------|--------------------------------|
A  :2-2-2-2-2-2-2---2-2-2---------------|7---*---------------------------|
E  :------------------------------------|0---*---------------------------|

G  :-----------------------------------------------------------------|
D  :-----------------------------------------------------------------|
A  :7---*--------------------------10--------------------------------|
E  :0---*------------------------------------------------------------|

G  :--------------------------------------------------|
D  :--------------------------------------------------|
A  :----------------------------------------------2-2-|
E  :3-3-3-3-3-3-3-3-3-3-3-3-3-3-3-3-3-3-3-3-3-3-3-----|

G  :--------------------------------|------------------------------------|
D  :--------------------------------|------------------------------------|
A  :5-5-5-3-5-5-5-5-3-5-5-5-5-5-3-5-|7-7-7-7-7-7-7-7-7-5-5-5-5-5-5-5-5-5-|
E  :--------------------------------|------------------------------------|

G  :--------------------------------|--------------------------------|
D  :--------------5-----------------|--------------------------------|
A  :3-3-3-3-3-5-7-------------------|3-3-3-3-3-3-3-3-5-5-5-5-5-5-5-5-|
E  :----------------3-3-3-3-3-3-3-3-|--------------------------------|

G  :--------------------------------|--------------------------------|
D  :--------------------------------|--------------------------------|
A  :--------------------------------|----------------5-5-5-5-5-5-5-5-|
E  :3-3-3-3-3-3-3-3-3-3-3-3-3-3-3-3-|3-3-3-3-3-3-3-3-----------------|

G  :--------------------------------|--------------------------------|
D  :------------0-5-5-5-5-5-5-5-5-5-|--------------------------------|
A  :3-3-3-3-3-3---------------------|3-3-3-3-3-3-3-3-5-5-5-5-5-5-5-5-|
E  :--------------------------------|--------------------------------|

G  :---------------------------------|----------------7-9-9-9-7-9-9-9-9-9-|
D  :---------------------------------|------------------------------------|
A  :---------------------------------|7-7-7-7-7-7-7-7---------------------|
E  :3-3-3-3-3-3-3-3-3-3-3-3-3-3-3-3--|------------------------------------|

G  :--------------------------------|-----------------7-9-9-9-7-9-9-9-9--9-|
D  :--------------------------------|--------------------------------------|
A  :----------------2-------0-------|7-7-7-7-7-7-7-7-----------------------|
E  :3-------0-----------------------|--------------------------------------|

G  :9---*------------------------------------------------|
D  :-----------------------------------------------------|
A  :-----------------------------------------------------|
E  :-----------------------------------------------------|

G  :------------------------------------|
D  :------------------------------------|
A  :7-7-7-7-7-7-7-7-7-------------------|
E  :------------------8-8-8-8-8-8-8-8-8-|

G  :------------------------------------|
D  :------------------------------------|
A  :5-5-5-5-5-5-5-5-5-7-7-7-7-7-7-7-7-7-|
E  :------------------------------------|

G  :------------------------------------|
D  :------------------------------------|
A  :------------------5-5-5-5-5-5-5-5-5-|
E  :8-8-8-8-8-8-8-8-8-------------------|

G  :----------------------7-9-9-9-9-7-9-9------|
D  :---------------9----------------------9----|
A  :7--7--7-7-7-7-----7-7-------------------10-|
E  :-------------------------------------------|

G  :--------------------------------|--------------------------------|
D  :--------------------------------|--------------------------------|
A  :7-7-7-7-7-7-7-7-----------------|5-5-5-5-5-5-5-5-7-7-7-7-7-7-7-7-|
E  :----------------8-8-8-8-8-8-8-8-|--------------------------------|

G  :----------------------------------|--------------------------------|
D  :----------------------------------|----------------9-9-9-9-9-9-----|
A  :------------------------10-7------|----------9---9-------------9---|
E  :8-8-8-8-8-8-8-8-8-8-8-8------10-8-|7-7-7-7-7---7-----------------7-|

G  :--------------------------------|--------------------------------|
D  :--------------------------------|--------------------------------|
A  :--------------------------5-7---|7-7-7-7-7-7-7-7-7-7-7-7-7-7-7-7-|
E  :5-5-5-5-5-5-5-5-5-5-5-5-5-----7-|--------------------------------|

G  :--------------------------------|---------------------------------|
D  :--------------------------------|---------------------------------|
A  :--------------------------------|---------------------------------|
E  :5-5-5-5-5-5-5-5-5-5-5-5-5-5-5-5-|8-8-8-8-8-8-10-8-7-7-7-7-7-7-8-7-|

G  :--------------------------------|--------------------------------|
D  :--------------------------------|--------------------------------|
A  :7---------------5---------------|3-------------------------------|
E  :0---------------0---------------|0---------------3-------2-------|

G  :--------------------------------|---------------------------------|
D  :--------------------------------|---------------------------------|
A  :7---------------5---------------|3--------------------------------|
E  :0---------------0---------------|0---------------3-------2--------|

G  :------------------------------------------------|
D  :------------------------------------------------|
A  :7-7-7-7-7-7-7-7-7-7-7-7-5-5-5-5-5-5-5-5-5-5-5-5-|
E  :------------------------------------------------|

G  :------------------------4-4-4-4-4-4-4-4-2-2-2-2-4-4-2-2|
D  :-------------------------------------------------------|
A  :3-3-3-3-3-3-3-3-3-3-3-3--------------------------------|
E  :-------------------------------------------------------|

G  :------------------------------------------------|
D  :------------------------------------------------|
A  :7-7-7-7-7-7-7-7-7-7-7-7-5-5-5-5-5-5-5-5-5-5-5-5-|
E  :------------------------------------------------|

G  :------------------------4-5-5-5-4-5-5-5-4-2---|
D  :----------------------------------------------|
A  :2-3-3-3-3-2-3-3-3-3-3-3-----------------------|
E  :----------------------------------------------|

G  :2-4-4-4-4-4-4-2-4-4-4-4-4-4-2-4-4-4-4-4-4-4-4-4-4-2-0-|
D  :------------------------------------------------------|
A  :------------------------------------------------------|
E  :------------------------------------------------------|

G  :--------------------------------|--------------------------------|
D  :--------------------------------|--------------------------------|
A  :7-7-7-7-7-7-7-7-5-5-5-5-5-5-5-5-|7-7-7-7-7-7-7-7-5-5-5-5-5-5-5-5-|
E  :--------------------------------|--------------------------------|

G  :--------------------------------|--------------------------------|
D  :--------------------------------|--------------------------------|
A  :--------------------------------|0-5-5-5-5-5-5-5-3-5-5-5-5-5-5-5-|
E  :3-3-3-3-3-3-3-3-3-3-3-3-3-3-7-3-|--------------------------------|

G  :--------------------------------|--------------------------------|
D  :--------------------------------|------------0-4-----------------|
A  :7-7-7-7-7-7-7-7-5-5-5-5-5-8-7-5-|3-3-3-3-3-3---------------------|
E  :--------------------------------|----------------3-3-3-3-3-3-3-3-|

G  :----------------------------------|--------------------------------|
D  :----------------------------------|5-------------------------------|
A  :3-3-3-3-3--3-3-3-5--5-5-5-5-5-3-5-|--------------------------------|
E  :----------------------------------|--3-3-3-3-3-3-3-3-3-3-3-3-3-3-3-|

G  :---------------------------------|--------------------------------|
D  :---------------------------------|----------------5---------------|
A  :-------------------5-5-5-5-5-5-5-|3-3-3-3-3-3-3-9-----------------|
E  :3-3-3-3-3-3-3-3-10---------------|------------------3-3-3-3-3-3-3-|

G  :--------------------------------|--------------------------------|
D  :------------------------------4-|5-5-5-5-5-5-5-5-5-5-5-5-5-5-5-5-|
A  :3-3-3-3-3-3-3-3-5-5-5-5-3-5-5---|--------------------------------|
E  :--------------------------------|--------------------------------|

G  :--------------------------------|--------------------------------|
D  :--------------------------------|--------------------------------|
A  :7-7-7-7-7-7-7-7-5-5-5-5-5-5-5-5-|7-7-7-7-7-7-7-7-5-5-5-5-5-5-5---|
E  :--------------------------------|--------------------------------|

G  :--------------------------------------------------|
D  :--------------------------------------------------|
A  :----------------------------------------------2-2-|
E  :3-3-3-3-3-3-3-3-3-3-3-3-3-3-3-3-3-3-3-3-3-3-3-----|

G  :--------------------------------|------------------------------------|
D  :--------------------------------|--------------5---------------------|
A  :5-5-5-3-5-5-5-5-3-5-5-5-5-5-3-5-|7-7-7-7-7-7-7---7-5-5-5-5-5-5-5-7-5-|
E  :--------------------------------|------------------------------------|

G  :--------------------------------|--------------------------------|
D  :--------------5-----------------|--------------------------------|
A  :3-3-3-3-3-5-7-------------------|3-3-3-3-3-3-3-3-5-5-5-5-5-5-3-5-|
E  :----------------3-3-3-3-3-3-3-3-|--------------------------------|

G  :--------------------------------|
D  :------------------------5-------|
A  :--------------------------5-2-0-|
E  :3-3-3-3-3-3-3-3-3-3-3-3---------|

G  :-----------------------------------------------------------|
D  :-----------------------------------------------------------|
A  :--------------------------------5-5-5-5-5-5-5-5-5-5-5-5-5-5|
E  :3-3-3-3-3-3-3-3-3-3-3-3-3-3-3-3----------------------------|

G  :----------------------------------------------|
D  :----------------------------------------------|
A  :3-3-3-3-3-3-3-3-3-3-3-3-3-3-3-----------------|
E  :------------------------------3-3-3-3-3-3-3-3-|

G  :--------------------------------|
D  :--------------------------------|
A  :-3---------------5--------------|
E  :--------------------------------|

G  :------------------------7---10-10-10-12|
D  :5--------------------------------------|
A  :---------------------------------------|
E  :---------------------------------------|

G  :12-12-12-12-12-12-12-12-12-12-12-5-7-7-7-7-7-4-4-2-2-4-4-0-2-0----|
D  :---------------------------------------------------------------4-5|
A  :------------------------------------------------------------------|
E  :------------------------------------------------------------------|

G  :--------------------------------|--------------------------------|
D  :-4-2-4-2-0-2-0------------------|--------------------------------|
A  :---------------3-5-3-2-3-2-0-2-0|--------------------------------|
E  :--------------------------------|-3-5-3-3------------------------|

G  :--------------------------------------------|
D  :--------------------------------------------|
A  :--------------------------------------------|
E  :---3----------------------------------------|

G  :--------------------------------|
D  :--------------------------------|
A  :--------------------------------|
E  :*-------------------------------|
reproducciones 34
Composição: Herman Li / ZP Theart Colaboración y revision:
  • Taino Vieira

0 comentarios

mostrar más comentarios

¿Conseguiste tocar?

0 tocaron 0 aún no

¡Graba un vídeo tocando Evening Star y envianoslo!

00:00 / 00:00
outros vídeos desta música
repetir qualidade Automático
Outros vídeos desta música
00:00 / 00:00
Automático
OK