Cifra Club

Inside Winter Storm

DragonForce

Tablatura: Principal (guitarra)
Tom: E
Intro:

Guitarra Solo - Herman Li

      PM                              PM              PM PM PM PM PM PM PM PMPM
      S                               S  S S  S S  S  S  S  S  S  S  S  S  S S
E|----------------
----------------
----------------
-----------------------------|
B|----------------
----------------
----------------
-----------------------------|
G|----------------
---------------------14-x-15-x-12--x-15-14-10-14-12-10-12-7--|
D|--12------------------------------12----------------
-------------------------|
A|----------------
----------------
----------------
-----------------------------|
E|----------------
----------------
----------------
-----------------------------|

   PM PM                    PM PM PM PM PM PM PM PM PM
   S  S    S S    S S    S  S  S  S  S  S  S  S  S  S
----------------
----------------
----------------------|
----------------
----------------
----------------------|
--------<>14-x-<>15-x-<>12--x-12-17-17-12-14-10-14-12-|
--12-12----------------
-------------------------------|
----------------
----------------
----------------------|
----------------
----------------
----------------------|

   PM PM              PM PM PM PM PM PM PM PM PM
   S  S  S S  S S  S  S  S  S  S  S  S  S  S  S
----------------
----------------
----------------|
----------------
----------------
----------------|
--------14-x-15-x-12--x-19-19-17-14-17-17-14-12-|
--12-12----------------
-------------------------|
----------------
----------------
----------------|
----------------
----------------
----------------|

   PM PM PM PM PM PM PM PM
   S  S  S  S  S  S  S  S  T  T  T  T  T  T  T  T  T  T  T  T  T  T  T  T
--------------------------13-10----------------13-10-------13-10-------13-|
----------------
----------------11----------11-------11-11-------11-11----|
--15-10-15-17-15-10-17-12----------10----10-------------------------------|
----------------
----------------------12----------------
------------------|
----------------
----------------
----------------
--------------------------|
----------------
----------------
----------------
--------------------------|

   S   T  T  T  T  T  T T  T  T  T  T  T  T  T T  T  T  T  T  T  T  T  S  T  T
----------------
----------------
----------------
-------------------------------1-|
--13h-15-15-15-15-15-15---15-15-15-15-15-15-15---15-15-15-15-15-15-15-18-15-15---|
----------------
----------------
----------------
----------------
-----------------|
----------------
----------------
----------------
----------------
-----------------|
----------------
----------------
----------------
----------------
-----------------|
----------------
----------------
----------------
----------------
-----------------|

   S   T  T  T  T  T  T T  T  T  T  T  T  T  T T  T  T  T  T  T  T  T  S  T  T
----------------
----------------
----------------
----------------------15---------|
--13h-15-15-15-15-15-15---15-15-15-15-15-15-15---15-15-15-15-15-15-15----15-15-1-|
----------------
----------------
----------------
----------------
-----------------|
----------------
----------------
----------------
----------------
-----------------|
----------------
----------------
----------------
----------------
-----------------|
----------------
----------------
----------------
----------------
-----------------|

   S   T  T  T  T  T  T T  T  T  T  T  T  T  T T  T  T  T  T  T  T  T  S  T  T
----------------
----------------
----------------
-------------------------------1-|
--13h-15-15-15-15-15-15---15-15-15-15-15-15-15---15-15-15-15-15-15-15-18-15-15---|
----------------
----------------
----------------
----------------
-----------------|
----------------
----------------
----------------
----------------
-----------------|
----------------
----------------
----------------
----------------
-----------------|
----------------
----------------
----------------
----------------
-----------------|

                                                     W     W     W    W
    T  T  T  T  T  T  T  T  T  T  T  T  T  T  T  T    E     E     E    E
--13-10----------------------13-10----------10-13-<>13--<>10--<>12--<>8--|
--------11----------------11-------11----11------------------------------|
-----------10----------10-------------10----------------
-----------------|
--------------12----12----------------
----------------
-------------------|
-----------------13----------------
----------------
----------------------|
----------------
----------------
----------------
-------------------------|

   S   T  T  T  T  T  T T  T  T  T  T  T  T  T T  T  T  T  T  T  T  T  S  T  T
----------------
----------------
----------------
-------------------------------1-|
--13h-15-15-15-15-15-15---15-15-15-15-15-15-15---15-15-15-15-15-15-15-18-15-15---|
----------------
----------------
----------------
----------------
-----------------|
----------------
----------------
----------------
----------------
-----------------|
----------------
----------------
----------------
----------------
-----------------|
----------------
----------------
----------------
----------------
-----------------|

       PM PM PM PM PM PM   PM PM PM PM PM PM PM   PM PM PM PM PM PM PM
   S   T  T  T  T  T  T T  T  T  T  T  T  T  T T  T  T  T  T  T  T  T    S. T
----------------
----------------
----------------
----------------------<>15-------|
--13h-15-15-15-15-15-15---15-15-15-15-15-15-15---15-15-15-15-15-15-15------15----|>
----------------
----------------
----------------
----------------
-----------------|
----------------
----------------
----------------
----------------
-----------------|
----------------
----------------
----------------
----------------
-----------------|
----------------
----------------
----------------
----------------
-----------------|

   S   T  T  T  T  T  T T  T  T  T  T  T  T  T T  T  T  T  T  T  T  T  S  T  T
----------------
----------------
----------------
-------------------------------1-|
--13h-15-15-15-15-15-15---15-15-15-15-15-15-15---15-15-15-15-15-15-15-18-15-15---|
----------------
----------------
----------------
----------------
-----------------|
----------------
----------------
----------------
----------------
-----------------|
----------------
----------------
----------------
----------------
-----------------|
----------------
----------------
----------------
----------------
-----------------|

   W  W  W  W  W  W  W  W
    S  S  S  S  S  S  S  S  T  T  T  T  T  T  T  T  T  T  T  T    E
--22-22-22-17-20-20-20-20-15-15-17-17-15-15-13-13-10-10-13-13-<>10--|
----------------
----------------
----------------
--------------------|
----------------
----------------
----------------
--------------------|
----------------
----------------
----------------
--------------------|
----------------
----------------
----------------
--------------------|
----------------
----------------
----------------
--------------------|

     E     E    E   E   S  E  Q    S     S  S  S  S S S S S  S S S S S S  E
----L-----L-------------------------|----------------
-----------------------|
----------------
--------------------|----------------
-----------------------|
--------(10)-------x---x-12--9----x-|--14--x--x-10-x-x-7-x-12-x-x-9-x-x-----|
--(12)--------12--12---x------------|----------------
-------------------10--|
-------------------x---x------------|----------------
-----------------------|
----------------
--------------------|----------------
-----------------------|

    E   E   E   E   S  E  Q    S     S  S  S  S S S S S  S S S S S S  E
----------------
----------------|----------------
-----------------------|
----------------
----------------|----------------
-----------------------|
------10-------x---x-12--9----x-|--14--x--x-10-x-x-7-x-12-x-x-9-x-x-----|
--12------12--12---x------------|----------------
-------------------10--|
---------------x---x------------|----------------
-----------------------|
----------------
----------------|----------------
-----------------------|

     \1
     W
---(21)----------------|-------------------|-------------------||
-----------------------|-------------------|-------------------||
--<>17-----------------|-------------------|-------------------||
-----------------------|-------------------|-------------------||
-----------------------|-------------------|-------------------||
-----------------------|-------------------|-------------------||

Duration Legend
---------------
W - whole
H - half
Q - quarter
E|- 8th
S - 16th
T - 32nd
X - 64th
. - note dotted
|-n-|  - n-tuplets


Tablature Legend
----------------
L - tied note
x - dead note
G|- grace note
(n) - ghost note
> - accentuded note
NH - natural harmonic
AH - artificial harmonic
TH - tapped harmonic
SH - semi harmonic
PH - pitch harmonic
h - hammer on
p - pull off
B|- bend
br - bendRelease
pb - preBend
pbr - preBendRelease
brb - bendReleaseBend
\n/ - tremolo bar dip
\n - tremolo bar dive
-/n - tremolo bar Release up
/n\ - tremolo bar inverted dip
/n - tremolo bar return
-\n - tremolo bar Release down
S - shift slide
s - legato slide
/ -  slide into from below or out of upwards
\ -  slide into from above or out of downwards
~ - vibrato
W - wide vibrato
tr - trill
TP - tremolo picking
T - tapping
S - slap
P - pop
< - fade in
^ - brush up
v - brush down
reproducciones 26
Acordes para:
    Composição: Sam Totman / ZP Theart Colaboración y revision:
    • Taino Vieira

    0 comentarios

    mostrar más comentarios

    ¿Conseguiste tocar?

    0 tocaron 0 aún no

    ¡Graba un vídeo tocando Inside Winter Storm y envianoslo!

    00:00 / 00:00
    outros vídeos desta música
    repetir qualidade Automático
    Outros vídeos desta música
    00:00 / 00:00
    Automático
    OK