Cifra Club

Prepare For War Intro

DragonForce

Tablatura: Principal (guitarra)
Tom: G
--------------------------------------------------------------------------------|
--------------------------------------------------------------------------------|
Tabbed by:Paddy
Email:

Tuning: Standard

Time: 0:28

Rhythm Riff [repeat 3 times]

e|--------------------------------------------------------------------------------|
B|--------------------------------------------------------------------------------|
G|--------------------------------------------------------------------------------|
D|--2------------------2-----5---7-2-------------------------7--------------------|
A|--2---------3-6-3----2-----5---7-2---------3-6--------6-9---9-6---6-3-6-3-------|
E|--0-0-0--2-5------5--0-0-0-3-0-5-0-0-0-2-5----5-2-5-8-----------8--------5-2----|

Rhythm Lick [directly after Riff repeat 3]

e|--------------------------------------------------11-12-14~~~~---------------|
B|----------------------------------10-13-----10-13----------------------------|
G|--------------------8-11-----8-11------8-11----------------------------------|
D|--------7-10---7-10-----7-10-------------------------------------------------|
A|-----6-9----6-9--------------------------------------------------------------|
E|--5-8------------------------------------------------------------------------|

Lead Lick [unacompanied]

e|--15-12--12---------------------------------------------------------------------|
B|-------15--15-12--12------------------------------------------------------------|
G|----------------15--15-14-12-14^(16)--14-12---12----------------------12~~~-----|
D|--------------------------------------------14---14-12----------12-14-----------|
A|-------------------------------------------------------14-12-14-----------------|
E|--------------------------------------------------------------------------------|

Its basically all correct - enjoi!


(p.s if it starts to hurrt, stop!)
reproducciones 80
Acordes para:

    0 comentarios

    mostrar más comentarios

    ¿Conseguiste tocar?

    0 tocaron 0 aún no

    ¡Graba un vídeo tocando Prepare For War Intro y envianoslo!

    00:00 / 00:00
    outros vídeos desta música
    repetir qualidade Automático
    Outros vídeos desta música
    00:00 / 00:00
    Automático
    OK