Cifra Club

Seasons Version Acoustic

DragonForce

Tablatura: Principal (guitarra)
Tom: C#
Intro:
   Cm            Ab7             Bb
E|------------------------------------------------------------------|
B|-----4---------------4--------------------------------------------|
G|---5---5---5-----5-----5---5---------7----------------7-----------|
D|--5------5-----5---------5-------8-----8---8------8-----8---8-----|
A|-3--3--------------------------8---8-----8------8---8-----8-------|
E|-------------4-----4---------6----------------6-------------------|

   Cm            Ab7             Bb
E|----------------------------------------------6--------------------|
B|-----4---------------4------------------------6--------------------|
G|---5---5---5-----5-----5---5---------7--------7--------------------|
D|--5------5-----5---------5-------8-----8---8--8--------------------|
A|-3--3--------------------------8---8-----8----8--------------------|
E|-------------4-----4---------6----------------6--------------------|

Verso 2x:
    Cm        Ab      Adim       Ab
E|--------------------------------------|
B|-----4--------4--------4---------4----|
G|---5--5-5---5--5-5---5--5-5----5--5-5-|
D|--5-5--5---6-6--6---7-7--7----6-6--6--|
A|-3--------3--------3---------3--------|
E|--------------------------------------|

Pré-Refrão:
    Ab        Fm      Cm     (?)    Bb
E|-4---------8-------3-------------6-----|
B|-4---------9-------4-------------6-----|
G|-7---------10------5-------------7-----|
D|-6---------10------5-------------8-----|
A|-6---------8-------3-------------8-----|
E|-4-------------------------------6-----|

Refrão 2x:
    D#m      B      C#
E|-6-------7------9-------------------|
B|-7-------7------9-------------------|
G|-8-------8------10------------------|
D|-8-------9------11------------------|
A|-6-------9------11------------------|
E|---------7------9-------------------|

    D#m      B       F#     C#    B      C#
E|-6-------7-------2------4-----2------4----|
B|-7-------7-------2------6-----4------6----|
G|-8-------8-------3------6-----4------6----|
D|-8-------9-------4------6-----4------6----|
A|-6-------9-------4------4-----2------4----|
E|---------7-------2------------------------|

(Intro)

Verso 2 2x:
    Cm   Ab   Fm    Fm
E|-3----3----1-----1-----|
B|-4----4----1-----1-----|
G|-5----5----1-----1-----|
D|-5----6----3-----3-----|
A|-3----3----3-----3-----|
E|-----------1-----1-----|

Pre-Refrão:
    Ab        Fm      Cm     (?)    Bb
E|-4---------8-------3-------------6-----|
B|-4---------9-------4-------------6-----|
G|-7---------10------5-------------7-----|
D|-6---------10------5-------------8-----|
A|-6---------8-------3-------------8-----|
E|-4-------------------------------6-----|

Refrão 2x:
    D#m      B      C#
E|-6-------7------9-------------------|
B|-7-------7------9-------------------|
G|-8-------8------10------------------|
D|-8-------9------11------------------|
A|-6-------9------11------------------|
E|---------7------9-------------------|

    D#m      B       F#     C#    B      C#
E|-6-------7-------2------4-----2------4----|
B|-7-------7-------2------6-----4------6----|
G|-8-------8-------3------6-----4------6----|
D|-8-------9-------4------6-----4------6----|
A|-6-------9-------4------4-----2------4----|
E|---------7-------2------------------------|

Solo:
    D#m      B      C#                   x2
E|-6-------7------9-------------------|
B|-7-------7------9-------------------|
G|-8-------8------10------------------|
D|-8-------9------11------------------|
A|-6-------9------11------------------|
E|---------7------9-------------------|

(Intro)

Pre-Refrão:
   Ab        Fm      Cm     (?)    Bb
E|-4---------8-------3-------------6-----|
B|-4---------9-------4-------------6-----|
G|-7---------10------5-------------7-----|
D|-6---------10------5-------------8-----|
A|-6---------8-------3-------------8-----|
E|-4-------------------------------6-----|

Refrão 2x:
    D#m      B      C#
E|-6-------7------9-------------------|
B|-7-------7------9-------------------|
G|-8-------8------10------------------|
D|-8-------9------11------------------|
A|-6-------9------11------------------|
E|---------7------9-------------------|

    D#m      B       F#     C#    B      C#
E|-6-------7-------2------4-----2------4----|
B|-7-------7-------2------6-----4------6----|
G|-8-------8-------3------6-----4------6----|
D|-8-------9-------4------6-----4------6----|
A|-6-------9-------4------4-----2------4----|
E|---------7-------2------------------------|

Intro:
Cm  Ab7  Bb
Cm  Ab7  Bb

Cm                   Ab
I'm searching through emptiness,
    Adim                  Ab
And try to forget us in pain
Cm               Ab
The light of the dark setting sun
Adim                        Ab
Will bring my sadness to an end
Pre-Chorus
Ab                         Fm
Voices cry out through the fear and the doubt
Cm                             Bb
As we wait for our lives to be better

Refrão:
D#m           B     C#
The words are dying in the night
   D#m    B       C#
No winter last forever
    D#m     B        F#            C#
the seasons pass and Sunlight will shine on my
B                      C#
Life again, so let the past, now burn down in

Cm Ab Bb
Flames
Cm Ab Bb
Oooh

Verso 2:
Cm                      Ab
Locked in a prison in a world of living fear
Fm
On the edge of my destruction, marching on
Cm                             Ab
Still suffering darkness, even dreams of life not meant to be
Fm
As i cast away and search the rising sun

Pre-Refrão:
Ab                     Fm
Sadness inside for the truth that she hides
           Cm                      Bb
And theres pain in my heart for no reason

Refrão:
    D#m       B     C#
The words are dying in the night
   D#m    B       C#
No winter last forever
    D#m     B        F#            C#
the seasons pass and Sunlight will shine on my
B                      C#
Life again, so let the past, now burn down in
D#m  B  C#
Flames

( D#m  B  C# )

( Cm  Ab Bb )

( Cm  Ab Bb )

Solo:
E|----------------------------------------------------------------------------------|
B|-----------------------7---7-9/11-7/9~-----6h7p6----------------------------------|
G|---------------6---6/8---8-----------------------6--------------------------------|
D|-----4---4-6/8---8---------------------------------6-------6h8-8-11-8h11p8-6-6/8~-|
A|-4h6---6---------------------------------------------9-8h9------------------------|
E|----------------------------------------------------------------------------------|


E|----------------------------------|
B|----------------------------------|
G|----------------------------------|
D|-4-8-4h6p4-3---3-4-6-4h6p4-3------|
A|-------------6---------------6-4--|
E|----------------------------------|


E|--------------68968---8---10--11---8---8---10--11---10-11-10h11p10p8---6~-|
B|----------689-------8---8---8----8---9---9---9---9------------------------|
G|-------468----------------------------------------------------------------|
D|----468-------------------------------------------------------------------|
A|-468----------------------------------------------------------------------|
E|--------------------------------------------------------------------------|

E|---6--------------------------------------------------------------------|
B|-8---8-6---------------6-6h8-6------------------------------------------|
G|-----------8-7-5-7-8------------8-7-5---7-8-------------7h8-7~----------|
D|--------------------------------------------6----6-8-10-----------------|
A|----------------------------------------------------------------------1~|
E|--------------------------------------------------------------------1---|


Pre-Refrão:
Ab                         Fm
Voices cry out through the fear and the doubt
      Cm                       Bb
As we wait for our lives to be better

Refrão:
    D#m       B     C#
The words are dying in the night
   D#m    B       C#
No winter last forever
    D#m     B        F#            C#
the seasons pass and Sunlight will shine on my
B                        C#
Life again, so leave the past behind
    D#m         B      C#
The dark clouds fading from my mind
   D#m       B       C#
No pain will last forever
    D#M     B        F#            C#          B
The seasons pass and sunlight will shine on my life again,
           C#                    Cm
So let the past now burn down in flames
reproducciones 2.142
Acordes para:
    Colaboración y revision:
    • Gilmar Locatelli
    • Joanderson Rodrigues

    0 comentarios

    mostrar más comentarios

    ¿Conseguiste tocar?

    5 tocaron 1 aún no

    ¡Graba un vídeo tocando Seasons Version Acoustic y envianoslo!

    00:00 / 00:00
    outros vídeos desta música
    repetir qualidade Automático
    Outros vídeos desta música
    00:00 / 00:00
    Automático
    OK