Cifra Club

Through The Fire And Flames

DragonForce

Cifrado: Quase-completa (guitarra y guitarra eléctrica)
tono: Eb
    C5
E|------------------------------------------------|
B|------------------------------------------------|
G|-------------------10----15----13----12---------|
D|-10-12-13-10-12-13----13----10----10----10-12-8-|
A|------------------------------------------------|
E|------------------------------------------------|
    C5
E|------------------------------------------------|
B|------------------------------------------------|
G|-------------------10----15----13----12---------|
D|-10-12-13-10-12-13----13----10----10----10-12-8-|
A|------------------------------------------------|
E|------------------------------------------------|
    Bb5
E|------------------------------------------------|
B|------------------------------------------------|
G|-------------------10----15----13----12---------|
D|-10-12-13-10-12-13----13----10----10----10-12-8-|
A|------------------------------------------------|
E|------------------------------------------------|
    G#5
E|------------------------------------------------|
B|------------------------------------------------|
G|-------------------10----15----13----12---------|
D|-10-12-13-10-12-13----13----10----10----10-12-8-|
A|------------------------------------------------|
E|------------------------------------------------|
    G5
E|-6-----------------6-8-6------------------------|
B|---8-5-----------8-------8-------8--------------|
G|-------8-5---5-8-----------8-5-8----------------|
D|-----------8------------------------------------|
A|------------------------------------------------|
E|------------------------------------------------|

    C5
E|-11-11-11-11-8-8-11-11-11-11-8-8-11-11-8-8------|
B|------------------------------------------------|
G|------------------------------------------------|2x
    G#5
E|-15-15-15-15-8-8-15-15-15-15-11-11-15-15-11-11--|
B|------------------------------------------------|
G|------------------------------------------------|
    F5
E|-13-13-13-13-8-8-13-13-13-13-8-8-13-13-8-8------|
B|------------------------------------------------|
G|------------------------------------------------|
    G#5
E|------------------------------------------------|
B|-11-11-11-11-8-8-11-11-11-11-8-8-11-11-8-8------|
G|------------------------------------------------|
                                    ~~~~~~~~~~~~~
E|------------------------------------------------|
B|-8-11-13-15-11-13-15-16.13-----.16-16-----------|
G|------------------------------------------------|

    C5
E|-11-11-11-11-8-8-11-11-11-11-8-8-11-11-8-8------|
B|------------------------------------------------|
G|------------------------------------------------|
    G#5
E|-15-15-15-15-8-8-15-15-15-15-11-11-15-15-11-11--|
B|------------------------------------------------|
G|------------------------------------------------|
    F5
E|-13-13-13-13-8-8-13-13-13-13-8-8-13-13-8-8------|
B|------------------------------------------------|
G|------------------------------------------------|
    G#5
E|------------------------------------------------|
B|-11-11-11-11-8-8-11-11-11-11-8-8-11-11-8-8------|
G|------------------------------------------------|

e|11p8------------8-.11p8-----------8-|----------=|
B|-----9---8-9-11---------9---8-9-11--|----------=|
G|-------8------------------8---------|----------=|
D|------------------------------------|----------=|
   N.H.  1  1  1  1  1  1  1  1    1    1
E|-[16]-16-16-16-16-16-16-16-16---16---16---------|
B|------------------------------------------------|
G|------------------------------------------------|
D|------------------------------------------------|

(intro) C5 Ab5 Bb5 C5

C5                               Ab5
On a cold winter morning, in the time before the light
Bb5                                    C5
In flames of death's eternal reign we ride towards the fight
C5                                         Ab5
When the darkness has fallen down, and the times are tough all right
Bb5                               C5
The sound of evil laughter falls around the world tonight
C5                                        Ab5
Fighting hard, fighting on for the steel, through the wastelands evermore
Bb5                                            C5
The scattered souls will feel the hell bodies wasted on the shores
F5                                           C5
On the blackest plains in hell's domain, we watch them as we go
F5                                   Bb5
In fire and pain, and once again we know

          Eb5        Bb5
So now we fly ever free
       Ab5
We're free before the thunderstorm
C5                Bb5           Ab5
On towards the wilderness our quest carries on
C5              F5      C5             Eb5
Far beyond the sundown, far beyond the moonlight
F5                                 Bb5
Deep inside our hearts and all our souls

           Ab5              C5
So far away we wait for the day
        Bb5                        C5
For the light source so wasted and gone
            Ab5                     C5
We feel the pain of a lifetime lost in a thousand days
            Bb5                          C5
Through the fire and the flames we carry on

C5
As the red day is dawning
Ab5
And the lightning cracks the sky
Bb5
They'll raise their hands to the heavens above
C5
With resentment in their eyes
C5
Running back from the mid-morning light
           Ab5
There's a burning in my heart
        Bb5
We're banished from a time in a fallen land
C5
To a life beyond the stars
F5
In your darkest dreams see to believe
     C5
Our destiny is time
    F5                             Bb5
And endlessly we'll all be free tonight
           Eb5          Bb5        Ab5
And on the wings of a dream, so far beyond reality
C5            Bb5           Ab5
All alone in desperation, now the time has gone
C5                 F5          C5             Eb5
Lost inside you'll never find, lost within my own mind
F5                                 Bb5
Day after day this misery must go on

(refrão)
             C5                           Ab5
Now here we stand with their blood on our hands
             Bb5                   C5
We fought so hard now can we understand
               C5                      Ab5
I'll break the seal of this curse if I possibly can
    Bb5               C5
For freedom of every man

(riff do Who oh oh)
(não esqueça que isso é ligeiro).
E|------------------23-27---------------|
B|----------------25-----28-25----------|
G|-------22--22-24------------24-20-----|
D|--22-25--25----------------------22---|
A|22---------------------------------22-|
E|--------------------------------------|

(solo)
G|-----------------------------------------------|
D|-8h10-10-10-10-10-8h10-13p10-10-10-10-10-10-10-|
A|-----------------------------------------------|
E|-----------------------------------------------|

G|-12-12-12-10-10-10-8-8-10-10-10-8-8-8----------|
D|--------------------------------------12-12----|
A|-----------------------------------------------|
E|-----------------------------------------------|
00:00 / 00:00
Otros videos de esta canción
Repetir
Otros videos de esta canción
Composición de Sam Totman / ZP Theart
Colaboración y revisión:
  • Thyerrí Cruz
161 vistas
  • Simplificar cifrado
    • ½ Tono
    • A
    • Bb
    • B
    • C
    • Db
    • D
    • Eb
    • E
    • F
    • F#
    • G
    • Ab
  • Agregar a la lista

    0 comentarios

    Ver todos los comentarios

    ¿Lograste tocar?

    4 Tocaron 2 Aún no

    ¡Graba un video tocando Through The Fire And Flames y envíanoslo!

    00:00 / 00:00
    OK