Cifra Club

Valley Of The Damned

DragonForce

Tablatura: Principal (guitarra)
Tom: C
TUNING:Standard


'Rhythm Guitar 1'
'Rhythm Guitar 2'
'Lead Guitar 1'
'Lead Guitar 2'



  Gtr I
|---------------------------------|----------------------------------|
|---------------------------------|----------------------------------|
|---------------------------------|----------------------------------|
|-----4-5-----4-5-----4-5-----4-5-|-----4-5-----4-5-----4-5-----4-5--|
|---------------------------------|----------------------------------|
|-0-0-----0-0-----0-0-----0-0-----|-3-3-----3-3-----3-3-----3-3------|
|
| Gtr II
|---------------------------------|----------------------------------|
|---------------------------------|----------------------------------|
|---------------------------------|----------------------------------|
|-----2-------2-------2-------2---|-----5-------5-------5-------5----|
|-----2-------2-------2-------2---|-----5-------5-------5-------5----|
|-0-0-0---0-0-0---0-0-0---0-0-0---|-3-3-3---3-3-3---3-3-3---3-3-3----|


|---------------------------------------------|
|---------------------------------------------|
|---------------------------------------------|
|---------------------------------------------|
|-5-5-7-9-------------------------------------|
|---------10-10-12-14-10-10-12-14-10-10-12-14-|
|
|---------------------------------------------|
|---------------------------------------------|
|---------------------------------------------|
|-----4----------4-----------4-----------4----|
|-5-5-5----5--5--5-----5--5--5-----5--5--5----|
|---------------------------------------------|


|----------------------------------|
|----------------------------------|
|----------------------------------|
|-----2---4-5---5------------------|
|-3-3---3-----3-------9---9-9-10-9-|
|------------------7----7----------|
|
|----------------------------------|
|----------------------------------|
|-----5---5-----------------4----4-|
|-----5---5-----5-(5)-4-----4----4-|
|-3-3-3---3---------------2-2----2-|
|----------------------------------|


|-------------------------------------|---------------------------------|
|-------------------------------------|---------------------------------|
|-------------------------------------|---------------------------------|
|-------------------------------------|-----4-5-----4-5-----4-5-----4-5-|
|-----9-10-----9-10-----9-10-----9-10-|---------------------------------|
|-0-0------0-0------0-0------0-0------|-3-3-----3-3-----3-3-----3-3-----|
|
|-------------------------------------|---------------------------------|
|-------------------------------------|---------------------------------|
|-------------------------------------|---------------------------------|
|-----2--------2--------2--------2----|-----5-------5-------5-------5---|
|-----2--------2--------2--------2----|-----5-------5-------5-------5---|
|-0-0-0----0-0-0----0-0-0----0-0-0----|-3-3-3---3-3-3---3-3-3---3-3-3---|


|---------------------------------------------|
|---------------------------------------------|
|---------------------------------------------|
|---------------------------------------------|
|-5-5-7-9-------------------------------------|
|---------10-10-12-14-10-10-12-14-10-10-12-14-|
|
|---------------------------------------------|
|---------------------------------------------|
|---------------------------------------------|
|-----4----------4-----------4-----------4----|
|-5-5-5----5--5--5-----5--5--5-----5--5--5----|
|---------------------------------------------|


|----------------------------------|
|----------------------------------|
|----------------------------------|
|-----2---4-5---5------------------|
|-3-3---3-----3-------9---9-9-10-9-|
|------------------7----7----------|
|
|----------------------------------|
|----------------------------------|
|-----5---5-----------------4----4-|
|-----5---5-----5-(5)-4-----4----4-|
|-3-3-3---3---------------2-2----2-|
|----------------------------------|


|-------------------------------------|-----------------------------------|
|-------------------------------------|-----------------------------------|
|-------------------------------------|-----------------------------------|
|-------------------------------------|-------4-5-----4-5-----4-5-----4-5-|
|-----9-10-----9-10-----9-10-----9-10-|-----------------------------------|
|-0-0------0-0------0-0------0-0------|--3--3-----3-3-----3-3-----3-3-----|
|
|-------------------------------------|-----------------------------------|
|-------------------------------------|-----------------------------------|
|-------------------------------------|-----------------------------------|
|-----2--------2--------2--------2----|-------5-------5-------5-------5---|
|-----2--------2--------2--------2----|-------5-------5-------5-------5---|
|-0-0-0----0-0-0----0-0-0----0-0-0----|--3--3-3---3-3-3---3-3-3---3-3-3---|
|
| Gtr III
|----------2--------2-----------------|-----------5-------5-------3-------|
|----------------------------5--------|-(5)-------------------------------|
|-------------------------------------|-----------------------------------|
|-------------------------------------|-----------------------------------|
|-------------------------------------|-----------------------------------|
|-------------------------------------|-----------------------------------|


|-----------------------------------------------|
|-----------------------------------------------|
|-----------------------------------------------|
|-----------------------------------------------|
|--5--5-7-9-------------------------------------|
|-----------10-10-12-14-10-10-12-14-10-10-12-14-|
|
|-----------------------------------------------|
|-----------------------------------------------|
|-----------------------------------------------|
|-------4----------4-----------4-----------4----|
|--5--5-5----5--5--5-----5--5--5-----5--5--5----|
|-----------------------------------------------|
|
|-(3)--------5-----------3-----------2----------|
|------------------------------------------3----|
|-----------------------------------------------|
|-----------------------------------------------|
|-----------------------------------------------|
|-----------------------------------------------|


|-----------------------------------------|
|-----------------------------------------|
|-----------------------------------------|
|-----2---4-5---5-------------------------|
|-3-3---3-----3--------9-----9--9-10--9---|
|------------------7------7---------------|
|
|-----------------------------------------|
|-----------------------------------------|
|-----5---5---------------------4-----4---|
|-----5---5-----5-(5)--4--------4-----4---|
|-3-3-3---3------------------2--2-----2---|
|-----------------------------------------|
|
|-----------------------------------------|
|-5-------7---8---10--10-10--8--8--8--8-7-|
|---------------------14-12-12-11-11-11-7-|
|-----------------------------------------|
|-----------------------------------------|
|-----------------------------------------|


|-------------------------------------|-----------------------------------|
|-------------------------------------|-----------------------------------|
|-------------------------------------|-----------------------------------|
|-------------------------------------|-------4-5-----4-5-----4-5-----4-5-|
|-----9-10-----9-10-----9-10-----9-10-|-----------------------------------|
|-0-0------0-0------0-0------0-0------|--3--3-----3-3-----3-3-----3-3-----|
|
|-------------------------------------|-----------------------------------|
|-------------------------------------|-----------------------------------|
|-------------------------------------|-----------------------------------|
|-----2--------2--------2--------2----|-------5-------5-------5-------5---|
|-----2--------2--------2--------2----|-------5-------5-------5-------5---|
|-0-0-0----0-0-0----0-0-0----0-0-0----|--3--3-3---3-3-3---3-3-3---3-3-3---|
|
|-------------------------------------|-----------5-------5-------3-------|
|-5--------7--------7--------5--------|-(5)-------------------------------|
|-------------------------------------|-----------------------------------|
|-------------------------------------|-----------------------------------|
|-------------------------------------|-----------------------------------|
|-------------------------------------|-----------------------------------|


|-----------------------------------------------|
|-----------------------------------------------|
|-----------------------------------------------|
|-----------------------------------------------|
|--5--5-7-9-------------------------------------|
|-----------10-10-12-14-10-10-12-14-10-10-12-14-|
|
|-----------------------------------------------|
|-----------------------------------------------|
|-----------------------------------------------|
|-------4----------4-----------4-----------4----|
|--5--5-5----5--5--5-----5--5--5-----5--5--5----|
|-----------------------------------------------|
|
|-(3)--------5-----------3-----------2----------|
|------------------------------------------3----|
|-----------------------------------------------|
|-----------------------------------------------|
|-----------------------------------------------|
|-----------------------------------------------|


|-----------------------------------------|
|-----------------------------------------|
|-----------------------------------------|
|-----2---4-5---5-------------------------|
|-3-3---3-----3--------9-----9--9-10--9---|
|------------------7------7---------------|
|
|-----------------------------------------|
|-----------------------------------------|
|-----5---5---------------------4-----4---|
|-----5---5-----5-(5)--4--------4-----4---|
|-3-3-3---3------------------2--2-----2---|
|-----------------------------------------|
|
|-----------------------------------------|
|-5-------7---8---10--10-10--8--8--8--8-7-|
|---------------------14-12-12-11-11-11-7-|
|-----------------------------------------|
|-----------------------------------------|
|-----------------------------------------|


 2/4               4/4
|-----------------|---------------------------------|
|-----------------|---------------------------------|
|-----------------|---------------------------------|
|-----------------|---------------------------------|
|-----------------|-0-0-0-0-0-0-0-0-0-0-0-0-0-0-0-0-|
|-7-7-7-7-5-5-3-3-|-0-0-0-0-0-0-0-0-0-0-0-0-0-0-0-0-|
|
|-----------------|---------------------------------|
|-----------------|---------------------------------|
|-----------------|---------------------------------|
|-----------------|-2-2-2-2-2-2-2-2-2-2-2-2-2-2-2-2-|
|-2-2-2-2-0-0-----|---------------------------------|
|-------------3-3-|---------------------------------|
|
|-----------------|---------------------------------|
|-----------------|---------------------------------|
|-4-4-4-4-2-2-0-0-|-0-------------------------------|
|-0-0-0-0-0-0-0-0-|-0-------------------------------|
|-0-0-0-0-0-0-0-0-|-2-------------------------------|
|-----------------|-0-------------------------------|


|---------------------------------|---------------------------------|
|---------------------------------|---------------------------------|
|---------------------------------|---------------------------------|
|---------------------------------|-0-0-0-0-0-0-0-0-0-0-0-0-0-0-0-0-|
|-0-0-0-0-0-0-0-0-0-0-0-0-0-0-0-0-|---------------------------------|
|-0-0-0-0-0-0-0-0-0-0-0-0-0-0-0-0-|-0-0-0-0-0-0-0-0-0-0-0-0-0-0-0-0-|
|
|---------------------------------|---------------------------------|
|---------------------------------|---------------------------------|
|---------------------------------|---------------------------------|
|-2-2-2-2-2-2-2-2-2-2-2-2-2-2-2-2-|-0-0-0-0-0-0-0-0-0-0-0-0-0-0-0-0-|
|---------------------------------|---------------------------------|
|---------------------------------|---------------------------------|


  Gtrs I, II
|-----------|-------------------------------|
|------3----|-5-------------5-----5---------|
|-5----2----|-4-------------4-----4---------|
|-5----0----|-2-2-2-2-2-2-2-2-2-2-2-2-2-2-2-|
|-3---------|-------------------------------|
|-----------|-------------------------------|


  Gtr I
|---------------------------------|---------------------------------|
|-5---------------5-----5-----5---|-3---------------3-----3-----3---|
|-4---------------4-----4-----4---|-2---------------2-----2-----2---|
|-2-2-2-2-2-2-2-2-2-2-2-2-2-2-2-2-|-0-0-0-0-0-0-0-0-0-0-0-0-0-0-0-0-|
|---------------------------------|---------------------------------|
|---0-0-0-0-0-0-0---0-0---0-0---0-|---0-0-0-0-0-0-0---0-0---0-0---0-|
|
| Gtr II
|---------------------------------|---------------------------------|
|-5---------------5-----5-----5---|-3---------------3-----3-----3---|
|-4---------------4-----4-----4---|-2---------------2-----2-----2---|
|-2---2-2-2-2-2-2-2-2-2-2-2-2-2-2-|-2---0-0-0-0-0-0-0-0-0-0-0-0-0-0-|
|---------------------------------|-5---------------5-----5-----5---|
|---------------------------------|---------------------------------|


|-----------|---------------------------------|
|------3----|---------------------------------|
|-5----2----|-4---------------4-----4---------|
|-5----0----|-2-2-2-2-2-2-2-2-2-2-2-2-2-2-2-0-|
|-3---------|-----------------------------2---|
|-----------|---------------------------------|
|
|-----------|---------------------------------|
|-1----3----|-------------------1-0-0-0-------|
|-0----2----|-4-----4-----4---5-4-2-2-2-2-2-2-|
|-0----0----|-2-2-2-2-2-2-2-2-2---------5-5-2-|
|-3---------|---------------------------------|
|-----------|---------------------------------|


|---------------------------------|---------------------------------|
|---------------------------------|---------------------------------|
|-4---------------4-----4-----4---|-2---------------2-----2-----2---|
|-2-2-2-2-2-2-2-2-2-2-2-2-2-2-2-2-|-2-0-0-0-0-0-0-0-0-0-0-0-0-0-0-0-|
|---------------------------------|-5---------------5-----5-----5---|
|---------------------------------|---------------------------------|
|
|---------------------------------|---------------------------------|
|-------------------1-0-0-0-------|---------------------------------|
|-4-----4-----4---5-4-2-2-2-2-2-2-|-2-----2-----2---4-4-2-2-2-0-0---|
|-2-2-2-2-2-2-2-2-2---------5-5-2-|-2-0-0-0-0-0-0-0-0-7-5-5-5-4-4-5-|
|---------------------------------|-5-----5-----5-----------------5-|
|---------------------------------|---------------------------------|


|-----------|-----------|------------------------------------|
|-1----3----|-----------|-5---------------5-----5-(5)--------|
|-0----2----|-2----5----|-4---------------4-----4-(4)--------|
|-0----0----|-2----5----|-2---------------2-----2-(2)--------|
|-3---------|-0----3----|------------------------------------|
|-----------|-----------|------------------------------------|
|
|-----------|-----------|------------------------------------|
|-----------|-----------|------------------------------------|
|-5----7----|------5----|------------------------------------|
|-5----7----|-7----5----|-9-----9---------9-----9-------9----|
|-5----5----|-7---------|-7-7-7-7-7-7-7-7-7-7-7-7--7--7-7-7--|
|-8---------|-5----8----|------------------------------------|
|
| Gtr III
|-----------|-----------|-----------------2-----2-(2)--------|
|-----------|-----------|-------------------------------3----|
|-----------|-----------|------------------------------------|
|-----------|-----------|------------------------------------|
|-----------|-----------|------------------------------------|
|-----------|-----------|------------------------------------|


|-------------------|-----------------------------------|
|-------------------|-----------------------------------|
|-2-------5---------|--4--------------------------------|
|-2-------5---------|--4--------------------------------|
|-0-------3---------|--2--------------------------------|
|-------------------|-----------------------------------|
|
|-------------------|-----------------------------------|
|-------------------|-----------------------------------|
|---------5---------|--4--------------------------------|
|-7-------5---------|--4--------------------------------|
|-7-----------------|----3-5-7-9-10-12--10--9-7-5-3-2-0-|
|-5-------8---------|--7--------------------------------|
|
|-------------------|-----------------------------------|
|-5---5-7-8-8-(8)-8-|-10---------------(10)-------------|
|-------------------|---------------------------------9-|
|-------------------|-----------------------------------|
|-------------------|-----------------------------------|
|-------------------|-----------------------------------|


  Gtrs I, II
|---------------------------------|---------------------------------|
|---------------------------------|---------------------------------|
|---------------------------------|---------------------------------|
|-2-2-2-2-2-2-2-2-2-2-2-2-2-2-2-2-|-2-------------------------------|
|---------------------------------|---------------------------------|
|---------------------------------|-3-3-3-3-3-3-3-3-3-3-3-3-3-3-3-3-|
|
| Gtr III
|---------------------------------|---------------------------------|
|-----------------------------7---|-8-------------------------------|
|-9-----------7-----------9-------|-------------7---7-------7-------|
|-9---------------9---------------|-----------------------------9---|
|---------------------------------|---------------------------------|
|---------------------------------|---------------------------------|
|
| Gtr IV
|-------------------------3---5---|-7-----------5---3-------3---3---|
|-8-----------7---5---------------|---------------------------------|
|---------------------------------|---------------------------------|
|---------------------------------|---------------------------------|
|---------------------------------|---------------------------------|
|---------------------------------|---------------------------------|


  Gtr I
|---------------------------------|----------------------------|
|---------------------------------|----------------------------|
|-2-----2---------2-----2---------|--4-----4-----4---4---------|
|-0-0-0-0-0-0-0-0-0-0-0-0-0-0-0-0-|--2-2-2-2-2-2-2-2-2-------2-|
|-------5---------5-----5---------|--5-------------------------|
|-3-------------------------------|----------------------------|
|
| Gtr II
|---------------------------------|----------------------------|
|---------------------------------|----------------------------|
|---------------------------------|------------------9--(9)----|
|---------------------------------|------------------9--(9)----|
|-5-5-5-5-5-5-5-5-5-5-5-5-5-5-5-5-|--7-7-7-7-7-7-7-7-7--(7)--7-|
|-3-------------------------------|-10-------------------------|
|
| Gtr III
|---------------------------------|----------------------------|
|-------------5---3-------5---3---|--5-----------3-----------3-|
|-7-------------------------------|------------------4---4-----|
|---------------------------------|----------------------------|
|---------------------------------|----------------------------|
|---------------------------------|----------------------------|


|---------------------------------|---------------------------------|
|---------------------------------|---------------------------------|
|-4-----4---------4-----4-----4---|---------------------------------|
|-2-2-2-2-2-2-2-2-2-2-2-2-2-2-2-2-|-2-------------------------------|
|---------------------------------|-5-----5---------5-------5---2---|
|---------------------------------|-3-3-3-3-3-3-3-3-3-3-3-3-3-------|
|
|---------------------------------|---------------------------------|
|---------------------------------|---------------------------------|
|---------------------------------|---------------------------------|
|---------------------------------|-2-------------------------------|
|-7-7-7-7-7-7-7-7-7-7-7-7-7-7-7-7-|---------------------------------|
|---------------------------------|-3-3-3-3-3-3-3-3-3-3-3-3-3-3-3-3-|
|
|---------------------------------|---------------------------------|
|-5-----------3-----------5---3---|-3-----------3---3-------3-------|
|-----------------4---------------|-----------------------------4---|
|---------------------------------|---------------------------------|
|---------------------------------|---------------------------------|
|---------------------------------|---------------------------------|


|-----------------|----------------|
|-----------------|-3--------------|
|-5---------------|-2---------2----|
|-5---------------|-0---------0----|
|-3---------------|----------------|
|-----------------|----------------|
|
|-----------------|------10--------|
|-----------------|-3--------------|
|-5---------------|-2--------11----|
|-5---------------|-0--------------|
|-3---------------|----------------|
|-3---------------|----------------|
|
|-----------------|----------------|
|-5---5-5-7-(7)-8-|-7---------8-10-|
|-----------------|----------------|
|-----------------|----------------|
|-----------------|----------------|
|-----------------|----------------|


|----------------------------|---------------------|
|----------------3-----------|-5-------------------|
|----------------2-----------|-4---------4---------|
|--5-------------0-----------|-2---------4---------|
|--5-------------------------|-----------2---------|
|--3-------------------------|---------------------|
|
|----------------------------|---------------------|
|----------------3-----------|-5-------------------|
|----------------2-----------|-4---------4---------|
|--5-------------0-----------|-2---------4---------|
|--5-------------------------|-----------2---------|
|--3-------------------------|---------------------|
|
|----------------------------|---------------------|
|-12-12-(12)-----------------|-8-7-(7)-5-3-3-(3)-3-|
|------------12-11-11-(11)-9-|---------------------|
|----------------------------|---------------------|
|----------------------------|---------------------|
|----------------------------|---------------------|


  Gtrs I, II
|---------------------|-------------------|
|---------------------|-----------3-------|
|-5-------------------|-5---------2-------|
|-5---------5---------|-5---------0-------|
|-3---------5---------|-3-----------------|
|-----------3---------|-------------------|
|
| Gtr III
|---------------------|-------------------|
|-5-5-(5)-7-8---------|-5-7-(7)-8-7--8-10-|
|-------------9-(9)-7-|-------------------|
|---------------------|-------------------|
|---------------------|-------------------|
|---------------------|-------------------|
|
| Gtr IV
|-3-3-(3)-5-7-5-(5)-3-|-3-5-(5)-7-5--7--8-|
|---------------------|-------------------|
|---------------------|-------------------|
|---------------------|-------------------|
|---------------------|-------------------|
|---------------------|-------------------|


|---------------------------------------------|
|---------------------------------------------|
|------------------------2------2--------2----|
|------------------------0-0-0--0---0--0-0-0--|
|--5------5---------5-----------5--------5----|
|--3-3-3--3---3--3--3-3--3--------------------|
|
|---------------------------------------------|
|-12-----12-(12)------------------------------|
|------------------12---11-----11-(11)---9----|
|---------------------------------------------|
|---------------------------------------------|
|---------------------------------------------|
|
|-10-----10-(10)------------------------------|
|------------------12---10-----10-(10)---8----|
|---------------------------------------------|
|---------------------------------------------|
|---------------------------------------------|
|---------------------------------------------|


|-------------------------------------|-------------------------------------|
|-------------------------------------|-------------------------------------|
|-4-----4-------4---------------------|-------------------------------------|
|-2-2-2-2--2--2-2-2-4-----4-------4---|-5-----5-------5---0-----------------|
|-5-----------------7-2-2-2--2--2-2-2-|-3-3-3-3--3--3-3-3-3-----5-------5---|
|-------------------7-----------------|-7-----------------3-3-3-3--3--3-3-3-|
|
|-------------------------------------|-------------------------------------|
|-8-----7-(7)---5---3-----3-(3)---3---|-5-----5-(5)---7---8-----------------|
|-------------------------------------|-------------------------9-(9)---7---|
|-------------------------------------|-------------------------------------|
|-------------------------------------|-------------------------------------|
|-------------------------------------|-------------------------------------|
|
|-7-----5-(5)---3---2-----2-(2)---2---|-3-----3-(3)---5---7-----5-(5)---3---|
|-------------------------------------|-------------------------------------|
|-------------------------------------|-------------------------------------|
|-------------------------------------|-------------------------------------|
|-------------------------------------|-------------------------------------|
|-------------------------------------|-------------------------------------|


  Gtr I
|-------------------------------------|---------------------------------|
|-------------------------------------|---------------------------------|
|-------------------2-----2-------2---|---------------------------------|
|-5-----5-------5---0-0-0-0--0--0-0-0-|-0---4-5-----4-5-----4-5-----4-5-|
|-3-3-3-3--3--3-3-3-3-----5-------5---|---------------------------------|
|-3-----------------------------------|-0-0-----0-0-----0-0-----0-0-----|
|
| Gtr II
|-------------------------------------|---------------------------------|
|-------------------------------------|---------------------------------|
|-------------------2-----2-------2---|---------------------------------|
|-5-----5-------5---0-0-0-0--0--0-0-0-|-0---2-------2-------2-------2---|
|-3-3-3-3--3--3-3-3-3-----5-------5---|-----2-------2-------2-------2---|
|-3-----------------------------------|-0-0-0---0-0-0---0-0-0---0-0-0---|
|
| Gtr III
|-------------------------------------|---------2-------2---------------|
|-5-----7-(7)---8---7-----5-(5)---3---|-------------------------5-------|
|-------------------------------------|-4-------------------------------|
|-------------------------------------|---------------------------------|
|-------------------------------------|---------------------------------|
|-------------------------------------|---------------------------------|


|-----------------------------------|
|-----------------------------------|
|-----------------------------------|
|-------4-5-----4-5-----4-5-----4-5-|
|-----------------------------------|
|--3--3-----3-3-----3-3-----3-3-----|
|
|-----------------------------------|
|-----------------------------------|
|-----------------------------------|
|-------5-------5-------5-------5---|
|-------5-------5-------5-------5---|
|--3--3-3---3-3-3---3-3-3---3-3-3---|
|
|-----------5-------5-------3-------|
|-(5)-------------------------------|
|-----------------------------------|
|-----------------------------------|
|-----------------------------------|
|-----------------------------------|


|-----------------------------------------------|
|-----------------------------------------------|
|-----------------------------------------------|
|-----------------------------------------------|
|--5--5-7-9-------------------------------------|
|-----------10-10-12-14-10-10-12-14-10-10-12-14-|
|
|-----------------------------------------------|
|-----------------------------------------------|
|-----------------------------------------------|
|-------4----------4-----------4-----------4----|
|--5--5-5----5--5--5-----5--5--5-----5--5--5----|
|-----------------------------------------------|
|
|-(3)--------5-----------3-----------2----------|
|------------------------------------------3----|
|-----------------------------------------------|
|-----------------------------------------------|
|-----------------------------------------------|
|-----------------------------------------------|


|-----------------------------------------|
|-----------------------------------------|
|-----------------------------------------|
|-----2---4-5---5-------------------------|
|-3-3---3-----3--------9-----9--9-10--9---|
|------------------7------7---------------|
|
|-----------------------------------------|
|-----------------------------------------|
|-----5---5---------------------4-----4---|
|-----5---5-----5-(5)--4--------4-----4---|
|-3-3-3---3------------------2--2-----2---|
|-----------------------------------------|
|
|-----------------------------------------|
|-5-------7---8---10--10-10--8--8--8--8-7-|
|---------------------14-12-12-11-11-11-7-|
|-----------------------------------------|
|-----------------------------------------|
|-----------------------------------------|


|-------------------------------------|
|-------------------------------------|
|-------------------------------------|
|-------------------------------------|
|-----9-10-----9-10-----9-10-----9-10-|
|-0-0------0-0------0-0------0-0------|
|
|-------------------------------------|
|-------------------------------------|
|-------------------------------------|
|-----2--------2--------2--------2----|
|-----2--------2--------2--------2----|
|-0-0-0----0-0-0----0-0-0----0-0-0----|
|
|-------------------------------------|
|-5--------7--------7--------5--------|
|-------------------------------------|
|-------------------------------------|
|-------------------------------------|
|-------------------------------------|


|-----------------------------------|
|-----------------------------------|
|-----------------------------------|
|-------4-5-----4-5-----4-5-----4-5-|
|-----------------------------------|
|--3--3-----3-3-----3-3-----3-3-----|
|
|-----------------------------------|
|-----------------------------------|
|-----------------------------------|
|-------5-------5-------5-------5---|
|-------5-------5-------5-------5---|
|--3--3-3---3-3-3---3-3-3---3-3-3---|
|
|-----------5-------5-------3-------|
|-(5)-------------------------------|
|-----------------------------------|
|-----------------------------------|
|-----------------------------------|
|-----------------------------------|


|-----------------------------------------------|
|-----------------------------------------------|
|-----------------------------------------------|
|-----------------------------------------------|
|--5--5-7-9-------------------------------------|
|-----------10-10-12-14-10-10-12-14-10-10-12-14-|
|
|-----------------------------------------------|
|-----------------------------------------------|
|-----------------------------------------------|
|-------4----------4-----------4-----------4----|
|--5--5-5----5--5--5-----5--5--5-----5--5--5----|
|-----------------------------------------------|
|
|-(3)--------5-----------3-----------2----------|
|------------------------------------------3----|
|-----------------------------------------------|
|-----------------------------------------------|
|-----------------------------------------------|
|-----------------------------------------------|


|-----------------------------------------|--------------------------------|
|-----------------------------------------|--------------------------------|
|-----------------------------------------|--9-------------9-----9-----9---|
|-----2---4-5---5-------------------------|--9-------------9-----9-----9---|
|-3-3---3-----3--------9-----9--9-10--9---|----7-7-7-7-7-7-7-7-7-7-7-7-7-7-|
|------------------7------7---------------|-12-0-0-0-0-0-0---0-0---0-0---0-|
|
|-----------------------------------------|--------------------------------|
|-----------------------------------------|--5-------------5-----5---------|
|-----5---5---------------------4-----4---|--4-------------4-----4---------|
|-----5---5-----5-(5)--4--------4-----4---|--2-2-2-2-2-2-2-2-2-2-2-2-2-2-2-|
|-3-3-3---3------------------2--2-----2---|--------------------------------|
|-----------------------------------------|--------------------------------|
|
|-----------------------------------------|--------------------------------|
|-5-------7---8---10--10-10--8--8--8--8-7-|--------------------------------|
|---------------------14-12-12-11-11-11-7-|--------------------------------|
|-----------------------------------------|--------------------------------|
|-----------------------------------------|--------------------------------|
|-----------------------------------------|--------------------------------|


|---------------------------------|----------------------------------|
|---------------------------------|----------------------------------|
|-9---------------9-----9-----9---|--7---------------7-----7-----7---|
|-9---------------9-----9-----9---|--7---------------7-----7-----7---|
|-7-7-7-7-7-7-7-7-7-7-7-7-7-7-7-7-|----5-5-5-5-5-5-5-5-5-5-5-5-5-5-5-|
|---0-0-0-0-0-0-0---0-0---0-0---0-|-10-0-0-0-0-0-0-0---0-0---0-0---0-|
|
|---------------------------------|----------------------------------|
|-5---------------5-----5-----5---|--3---------------3-----3-----3---|
|-4---------------4-----4-----4---|--2---------------2-----2-----2---|
|-2---2-2-2-2-2-2-2-2-2-2-2-2-2-2-|--2---0-0-0-0-0-0-0-0-0-0-0-0-0-0-|
|---------------------------------|--5---------------5-----5-----5---|
|---------------------------------|----------------------------------|


|-----------|---------------------------------|
|-----------|---------------------------------|
|-5----7----|---------------------------------|
|-5----7----|-9---------------9-----9---------|
|------5----|-7-7-7-7-7-7-7-7-7-7-7-7-7-7-7-5-|
|-8---------|-----------------------------7---|
|
|-----------|---------------------------------|
|-1----3----|-------------------1-0-0-0-------|
|-0----2----|-4-----4-----4---5-4-2-2-2-2-2-2-|
|-0----0----|-2-2-2-2-2-2-2-2-2---------5-5-2-|
|-3---------|---------------------------------|
|-----------|---------------------------------|


|---------------------------------|----------------------------------|
|---------------------------------|----------------------------------|
|---------------------------------|------------------2-----2-----2---|
|-9---------------9-----9-----9---|--7---------------0-0-0-0-0-0-0-0-|
|-7-7-7-7-7-7-7-7-7-7-7-7-7-7-7-7-|--7-5-5-5-5-5-5-5-5-----5-----5---|
|---------------------------------|-10-------------------------------|
|
|---------------------------------|----------------------------------|
|-------------------1-0-0-0-------|----------------------------------|
|-4-----4-----4---5-4-2-2-2-2-2-2-|--2-----2-----2---4-4-2-2-2-0-0---|
|-2-2-2-2-2-2-2-2-2---------5-5-2-|--2-0-0-0-0-0-0-0-0-7-5-5-5-4-4-5-|
|---------------------------------|--5-----5-----5-----------------5-|
|---------------------------------|----------------------------------|


|-----------|-----------|------------------------------------|
|-1----3----|-----------|-5---------------5-----5-(5)--------|
|-0----2----|-2----5----|-4---------------4-----4-(4)--------|
|-0----0----|-2----5----|-2---------------2-----2-(2)--------|
|-3---------|-0----3----|------------------------------------|
|-----------|-----------|------------------------------------|
|
|-----------|-----------|------------------------------------|
|-----------|-----------|------------------------------------|
|-5----7----|------5----|------------------------------------|
|-5----7----|-7----5----|-9-----9---------9-----9-------9----|
|-5----5----|-7---------|-7-7-7-7-7-7-7-7-7-7-7-7--7--7-7-7--|
|-8---------|-5----8----|------------------------------------|
|
| Gtr III
|-----------|-----------|------------------------------------|
|-----------|-----------|-----------------7-----7-(7)--------|
|-----------|-----------|-------------------------------7----|
|-----------|-----------|------------------------------------|
|-----------|-----------|------------------------------------|
|-----------|-----------|------------------------------------|


|-------------------|----------------|---------------------------------|
|-------------------|----------------|---------------------------------|
|-2-------5---------|--4-------------|-4-----4---------4-----4-----4---|
|-2-------5---------|--4-------------|-2-2-2-2-2-2-2-2-2-2-2-2-2-2-2-2-|
|-0-------3---------|--2-------------|---------------------------------|
|-------------------|----------------|---------------------------------|
|
|-------------------|----------------|---------------------------------|
|-------------------|----------------|---------------------------------|
|---------5---------|--4-------------|---------------------------------|
|-7-------5---------|--4-------------|-2-2-2-2-2-2-2-2-2-2-2-2-2-2-2-2-|
|-7-----------------|----------------|---------------------------------|
|-5-------8---------|--7-------------|---------------------------------|
|
|-------------------|----------------|---------------------------------|
|-5---5-7-8-8-(8)-8-|-10----(10)-----|-----------------------------7---|
|-------------------|--------------9-|-9-----------7-----------9-------|
|-------------------|----------------|-9---------------9---------------|
|-------------------|----------------|---------------------------------|
|-------------------|----------------|---------------------------------|


|---------------------------------|---------------------------------|
|---------------------------------|---------------------------------|
|---------------------------------|-2-----2---------2-----2---------|
|-2-------------------------------|-0-0-0-0-0-0-0-0-0-0-0-0-0-0-0-0-|
|-5-----5---------5-----5---------|-------5---------5-----5---------|
|-3-3-3-3-3-3-3-3-3-3-3-3-3-3-3-3-|-3-------------------------------|
|
|---------------------------------|---------------------------------|
|---------------------------------|---------------------------------|
|---------------------------------|---------------------------------|
|-2-------------------------------|---------------------------------|
|---------------------------------|-5-5-5-5-5-5-5-5-5-5-5-5-5-5-5-5-|
|-3-3-3-3-3-3-3-3-3-3-3-3-3-3-3-3-|-3-------------------------------|
|
|---------------------------------|---------------------------------|
|-8-------------------------------|-------------5---3-------5---3---|
|-------------7---7-------7-------|-7-------------------------------|
|-----------------------------9---|---------------------------------|
|---------------------------------|---------------------------------|
|---------------------------------|---------------------------------|


|----------------------------|---------------------------------|
|----------------------------|---------------------------------|
|--4-----4-----4---4---------|-4-----4---------4-----4-----4---|
|--2-2-2-2-2-2-2-2-2-------2-|-2-2-2-2-2-2-2-2-2-2-2-2-2-2-2-2-|
|--5-------------------------|---------------------------------|
|----------------------------|---------------------------------|
|
|----------------------------|---------------------------------|
|----------------------------|---------------------------------|
|------------------9--(9)----|---------------------------------|
|------------------9--(9)----|---------------------------------|
|--7-7-7-7-7-7-7-7-7--(7)--7-|-7-7-7-7-7-7-7-7-7-7-7-7-7-7-7-7-|
|-10-------------------------|---------------------------------|
|
|----------------------------|---------------------------------|
|--5-----------3-----------3-|-5-----------3-----------5---3---|
|------------------4---4-----|-----------------4---------------|
|----------------------------|---------------------------------|
|----------------------------|---------------------------------|
|----------------------------|---------------------------------|


|---------------------------------|-----------------|-----------------|
|---------------------------------|-----------------|-3---------------|
|---------------------------------|-5---------------|-2---------2-----|
|-2-------------------------------|-5---------------|-0---------0-----|
|-5-----5---------5-------5---2---|-3---------------|-----------------|
|-3-3-3-3-3-3-3-3-3-3-3-3-3-------|-----------------|-----------------|
|
|---------------------------------|-----------------|------10---------|
|---------------------------------|-----------------|-3---------------|
|---------------------------------|-5---------------|-2--------11-----|
|-2-------------------------------|-5---------------|-0---------------|
|---------------------------------|-3---------------|-----------------|
|-3-3-3-3-3-3-3-3-3-3-3-3-3-3-3-3-|-3---------------|-----------------|
|
|---------------------------------|-----------------|-----------------|
|-3-----------3---3-------3-------|-5---5-5-7-(7)-8-|-7---------8-10--|
|-----------------------------4---|-----------------|-----------------|
|---------------------------------|-----------------|-----------------|
|---------------------------------|-----------------|-----------------|
|---------------------------------|-----------------|-----------------|


  Gtrs I, II
|----------------------------|---------------------|
|----------------3-----------|-5-------------------|
|----------------2-----------|-4---------4---------|
|--5-------------0-----------|-2---------4---------|
|--5-------------------------|-----------2---------|
|--3-------------------------|---------------------|
|
| Gtr III
|----------------------------|---------------------|
|-12-12-(12)-----------------|-8-7-(7)-5-3-3-(3)-3-|
|------------12-11-11-(11)-9-|---------------------|
|----------------------------|---------------------|
|----------------------------|---------------------|
|----------------------------|---------------------|
|
| Gtr IV
|-10-10-(10)-----------------|-7-5-(5)-3-2-2-(2)-2-|
|------------12-10-10-(10)-8-|---------------------|
|----------------------------|---------------------|
|----------------------------|---------------------|
|----------------------------|---------------------|
|----------------------------|---------------------|


|---------------------|-------------------|
|---------------------|-----------3-------|
|-5-------------------|-5---------2-------|
|-5---------5---------|-5---------0-------|
|-3---------5---------|-3-----------------|
|-----------3---------|-------------------|
|
|---------------------|-------------------|
|-5-5-(5)-7-8---------|-5-7-(7)-8-7--8-10-|
|-------------9-(9)-7-|-------------------|
|---------------------|-------------------|
|---------------------|-------------------|
|---------------------|-------------------|
|
|-3-3-(3)-5-7-5-(5)-3-|-3-5-(5)-7-5--7--8-|
|---------------------|-------------------|
|---------------------|-------------------|
|---------------------|-------------------|
|---------------------|-------------------|
|---------------------|-------------------|


|--------------------------------------------|
|--------------------------------------------|
|------------------------2------2--------2---|
|------------------------0-0-0--0---0--0-0-0-|
|--5------5---------5-----------5--------5---|
|--3-3-3--3---3--3--3-3--3-------------------|
|
|--------------------------------------------|
|-12-----12-(12)-----------------------------|
|------------------12---11-----11-(11)---9---|
|--------------------------------------------|
|--------------------------------------------|
|--------------------------------------------|
|
|-10-----10-(10)-----------------------------|
|------------------12---10-----10-(10)---8---|
|--------------------------------------------|
|--------------------------------------------|
|--------------------------------------------|
|--------------------------------------------|


|-------------------------------------|
|-------------------------------------|
|-4-----4-------4---------------------|
|-2-2-2-2--2--2-2-2-4-----4-------4---|
|-5-----------------7-2-2-2--2--2-2-2-|
|-------------------7-----------------|
|
|-------------------------------------|
|-8-----7-(7)---5---3-----3-(3)---3---|
|-------------------------------------|
|-------------------------------------|
|-------------------------------------|
|-------------------------------------|
|
|-7-----5-(5)---3---2-----2-(2)---2---|
|-------------------------------------|
|-------------------------------------|
|-------------------------------------|
|-------------------------------------|
|-------------------------------------|


|-------------------------------------|-------------------------------------|
|-------------------------------------|-------------------------------------|
|-------------------------------------|-------------------2-----2-------2---|
|-5-----5-------5---0-----------------|-5-----5-------5---0-0-0-0--0--0-0-0-|
|-3-3-3-3--3--3-3-3-3-----5-------5---|-3-3-3-3--3--3-3-3-3-----5-------5---|
|-7-----------------3-3-3-3--3--3-3-3-|-3-----------------------------------|
|
|-------------------------------------|-------------------------------------|
|-5-----5-(5)---7---8-----------------|-5-----7-(7)---8---7-----5-(5)---3---|
|-------------------------9-(9)---7---|-------------------------------------|
|-------------------------------------|-------------------------------------|
|-------------------------------------|-------------------------------------|
|-------------------------------------|-------------------------------------|
|
|-3-----3-(3)---5---7-----5-(5)---3---|-3-----5-(5)---7---5-----3-(3)---2---|
|-------------------------------------|-------------------------------------|
|-------------------------------------|-------------------------------------|
|-------------------------------------|-------------------------------------|
|-------------------------------------|-------------------------------------|
|-------------------------------------|-------------------------------------|


  Gtr I
|-------------------------------------------------|
|--5----------------------------------------------|
|--4----------------------------------------------|
|--2----------------------------------------------|
|--5----------------------------------------------|
|-------------------------------------------------|
|
| Gtr II
|-------------------------------------------------|
|-------------------------------------------------|
|-------------------------------------------------|
|--2----------------------------------------------|
|--2----------------------------------------------|
|--0----------------------------------------------|
|
| Gtr III
|-20-19-------20-19-------20-19-------22----22----|
|----20----20-24-20----20-24-20----20-24-24-24-24-|
|-------21-21-------21-21-------21-21----24----24-|
|-------21----------21----------21----------------|
|-------------------------------------------------|
|-------------------------------------------------|


|-------------------------------------------------|
|--5--------------------------------------3-------|
|--4--------------------------------------2-------|
|--2--------------------------------------0-------|
|-------------------------------------------------|
|-------------------------------------------------|
|
|-------------------------------------------------|
|-----------------------------------------3-------|
|-----------------------------------------2-------|
|--2--------------------------------------0-------|
|--2----------------------------------------------|
|--0----------------------------------------------|
|
|-20-19-------20-19-------20-19-------22----22----|
|-24-20----20-24-20----20-24-20----20-24-24-24-24-|
|-------21-21-------21-21-------21-21----24----24-|
|-------21----------21----------21----------------|
|-------------------------------------------------|
|-------------------------------------------------|


|-------------------------------------------------|
|--5----------------------------------------------|
|--4----------------------------------------------|
|--2----------------------------------------------|
|-------------------------------------------------|
|-------------------------------------------------|
|
|-------------------------------------------------|
|-------------------------------------------------|
|-------------------------------------------------|
|--2----------------------------------------------|
|--2----------------------------------------------|
|--0----------------------------------------------|
|
|-20-19-------20-19-------20-19-------22----22----|
|-24-20----20-24-20----20-24-20----20-24-24-24-24-|
|-------21-21-------21-21-------21-21----24----24-|
|-------21----------21----------21----------------|
|-------------------------------------------------|
|-------------------------------------------------|


|-------------------------------------------------|
|--------------------------3----------------------|
|--5-----------------------2----------------------|
|--5-----------------------0----------------------|
|--3----------------------------------------------|
|-------------------------------------------------|
|
|-------------------------------------------------|
|--------------------------3----------------------|
|--5-----------------------2----------------------|
|--5-----------------------0----------------------|
|--3----------------------------------------------|
|-------------------------------------------------|
|
|-20-19-------------------------20-19-------24----|
|-24-20-20-------------------20-24-20----20-24-24-|
|-------21-21-21-------------21-------21-21----24-|
|----------21-21-21-------21----------21----------|
|----------------22-22-22-22----------------------|
|-------------------24-24-24----------------------|


|-------------------------------------------------|
|--5----------------------------------------------|
|--4----------------------------------------------|
|--2----------------------------------------------|
|-------------------------------------------------|
|-------------------------------------------------|
|
|-------------------------------------------------|
|-------------------------------------------------|
|-------------------------------------------------|
|--2----------------------------------------------|
|--2----------------------------------------------|
|--0----------------------------------------------|
|
|-20-19-------20-19-------20-19-------22----22----|
|----20----20-24-20----20-24-20----20-24-24-24-24-|
|-21----21-21-------21-21-------21-21----24----24-|
|-------21----------21----------21----------------|
|-------------------------------------------------|
|-------------------------------------------------|


|-------------------------------------------------|
|--5--------------------------------------3-------|
|--4--------------------------------------2-------|
|--2--------------------------------------0-------|
|-------------------------------------------------|
|-------------------------------------------------|
|
|-------------------------------------------------|
|-----------------------------------------3-------|
|-----------------------------------------2-------|
|--2--------------------------------------0-------|
|--2----------------------------------------------|
|--0----------------------------------------------|
|
|-20-19-------20-19-------20-19-------22----22----|
|-24-20----20-24-20----20-24-20----20-24-24-24-24-|
|-------21-21-------21-21-------21-21----24----24-|
|-------21----------21----------21----------------|
|-------------------------------------------------|
|-------------------------------------------------|


|-------------------------------------------------|
|--5----------------------------------------------|
|--4----------------------------------------------|
|--2----------------------------------------------|
|-------------------------------------------------|
|-------------------------------------------------|
|
|-------------------------------------------------|
|-------------------------------------------------|
|-------------------------------------------------|
|--2----------------------------------------------|
|--2----------------------------------------------|
|--0----------------------------------------------|
|
|-20-19-------20-19-------20-19-------22----22----|
|-24-20----20-24-20----20-24-20----20-24-24-24-24-|
|-------21-21-------21-21-------21-21----24----24-|
|-------21----------21----------21----------------|
|-------------------------------------------------|
|-------------------------------------------------|


|-------------------------------------------------|
|--------------------------3----------------------|
|--5-----------------------2----------------------|
|--5-----------------------0----------------------|
|--3----------------------------------------------|
|-------------------------------------------------|
|
|-------------------------------------------------|
|--------------------------3----------------------|
|--5-----------------------2----------------------|
|--5-----------------------0----------------------|
|--3----------------------------------------------|
|-------------------------------------------------|
|
|-20-19-------------------------------------22----|
|-24-20-20----------------------------20-20-24-24-|
|-------21-21-21-------------------21-21-21----24-|
|----------21-21-21----------21-21-21-------------|
|----------------22-22-22-22-22-22----------------|
|-------------------24-24-24----------------------|


  Gtrs I, II
|-------------------------------------------------|
|-------------------------------------------------|
|--4--------4--------4----------------------------|
|--2--2--2--2--2--2--2--2--2--2--2--2--2--2--2--2-|
|-------------------------------------------------|
|-------------------------------------------------|
|
| Gtr III
|-20-19-------20-19-------20-19-------22----22----|
|----20----20-24-20----20-24-20----20-24-24-24-24-|
|-21----21-21-------21-21-------21-21----24----24-|
|-------21----------21----------21----------------|
|-------------------------------------------------|
|-------------------------------------------------|
|
| Gtr IV
|-19----------------------------------19----19----|
|-22-20-------22-20-------22-20-------20-20-20-20-|
|----21----21-24-21----21-24-21----21----21----21-|
|-------21-21-------21-21-------21-21-------------|
|-------22----------22----------22----------------|
|-------------------------------------------------|


|-------------------------------------------------|
|--------------------------------------------3----|
|--4--------4--------4--------4--------------2----|
|--2--2--2--2--2--2--2--2--2--2--2--2--2--2--2----|
|--------------------------------------------5----|
|-------------------------------------------------|
|
|-20-19-------20-19-------20-19-------22----22----|
|-24-20----20-24-20----20-24-20----20-24-24-24-24-|
|-------21-21-------21-21-------21-21----24----24-|
|-------21----------21----------21----------------|
|-------------------------------------------------|
|-------------------------------------------------|
|
|-------------------------------------19----19----|
|-22-20-------22-20-------22-20-------20-20-20-20-|
|-24-21----21-24-21----21-24-21----21----21----21-|
|-------21-21-------21-21-------21-21-------------|
|-------22----------22----------22----------------|
|-------------------------------------------------|


|-------------------------------------------------|
|-------------------------------------------------|
|--4--------4--------4--------4-------------------|
|--2--2--2--2--2--2--2--2--2--2--2--2--2--2--2--2-|
|-------------------------------------------------|
|-------------------------------------------------|
|
|-20-19-------20-19-------20-19-------22----22----|
|-24-20----20-24-20----20-24-20----20-24-24-24-24-|
|-------21-21-------21-21-------21-21----24----24-|
|-------21----------21----------21----------------|
|-------------------------------------------------|
|-------------------------------------------------|
|
|-------------------------------------19----19----|
|-22-20-------22-20-------22-20-------20-20-20-20-|
|-24-21----21-24-21----21-24-21----21----21----21-|
|-------21-21-------21-21-------21-21-------------|
|-------22----------22----------22----------------|
|-------------------------------------------------|


|-------------------------------------------------|
|--1-----------------------3----------------------|
|--0-----------------------2----------------------|
|--2-----------------------0----------------------|
|--3----------------------------------------------|
|-------------------------------------------------|
|
|-20-19-------------------------------------22----|
|-24-20-20----------------------------20-20-24-24-|
|-------21-21-21-------------------21-21-21----24-|
|----------21-21-21----------21-21-21-------------|
|----------------22-22-22-22-22-22----------------|
|-------------------24-24-24----------------------|
|
|-------------------------------------------19----|
|-22-20-------------------------------17-17-20-20-|
|-24-21-21-------------------------17-17-17----21-|
|-------22-22-22-------------17-17-17-------------|
|----------22-22-22-19-19-19-19-19----------------|
|----------------24-20-20-20----------------------|


|-------------------------------------------------|
|-------------------------------------------------|
|--4--------4--------4--------4-------------------|
|--2--2--2--2--2--2--2--2--2--2--2--2--2--2--2--2-|
|-------------------------------------------------|
|-------------------------------------------------|
|
|-20-19-------20-19-------20-19-------22----22----|
|----20----20-24-20----20-24-20----20-24-24-24-24-|
|-21----21-21-------21-21-------21-21----24----24-|
|-------21----------21----------21----------------|
|-------------------------------------------------|
|-------------------------------------------------|
|
|-------------------------------------19----19----|
|-22-20-------22-20-------22-20-------20
reproducciones 174
Acordes para:
    Composição: Sam Totman / ZP Theart Colaboración y revision:
    • Taino Vieira

    0 comentarios

    mostrar más comentarios

    ¿Conseguiste tocar?

    1 tocaron 0 aún no

    ¡Graba un vídeo tocando Valley Of The Damned y envianoslo!

    00:00 / 00:00
    outros vídeos desta música
    repetir qualidade Automático
    Outros vídeos desta música
    00:00 / 00:00
    Automático
    OK