Cifra Club

One dance

Drake

Tablatura: Principal (guitarra)
Tom: F#
A#m
Grips on your waist
                    C#
Front way, back way

You know that I don't play
D#m
Streets not safe
                    D#m
But I never run away

Even when I'm away

A#m                         C#
OT, OT, there's never much love when we go OT
      D#m
I pray to make it back in one piece

I pray, I pray



           A#m
That's why I need a one dance
           C#
Got a Hennessy in my hand
         D#m
One more time 'fore I go
              D#m
Higher powers taking a hold on me

A#m
I need a one dance
           C#
Got a Hennessy in my hand
         D#m
One more time 'fore I go
              D#m
Higher powers taking a hold on me


[Kyla + Wizkid]

Baby I like your style

E|---------------------------------------------------------------------------|
B|-----------/5-0-----0------------------------------------------------------|
G|-----------------------0--0h2-2s--s-0h2-2s--s------------------------------|
D|---------------------2-----------------------------------------------------|
A|---------------------------------------------------------------------------|
E|-------0-------------------------------------------------------------------|


[Drake]

A#m
Strength and guidance
             C#
All that I'm wishing for my friends
       D#m
Nobody makes it from my ends
         D#m
I had to bust up the silence
         A#m
You know you gotta stick by me
C#
Soon as you see the text, reply me
  D#m
I don't wanna spend time fighting

We've got no time


[Drake]

           A#m
That's why I need a one dance
           C#
Got a Hennessy in my hand
         D#m
One more time 'fore I go
              D#m
Higher powers taking a hold on me
A#m
I need a one dance
           C#
Got a Hennessy in my hand
         D#m
One more time 'fore I go
              D#m
Higher powers taking a hold on me


[Wizkid]

A#m
Got a pretty girl and she love me long time
C#
Wine it, wine it, very long time
E|------------------------------------------5--------------------------------|
B|------------------------------5--8-5-8-7-5---------------------------------|
G|--------------4--7-4-7-5-4-------------------------------------------------|
D|---------------------------------------------------------------------------|
A|---------------------------------------------------------------------------|
E|---------------------------------------------------------------------------|

D#m
Oh yeah, very long time
D#m
Back up, back up, back up and wine it
A#m
Back up, back up and wine it, girl
E|------------------------------------------5--------------------------------|
B|------------------------------5--8-5-8-7-5---------------------------------|
G|--------------4--7-4-7-5-4-------------------------------------------------|
D|---------------------------------------------------------------------------|
A|---------------------------------------------------------------------------|
E|---------------------------------------------------------------------------|

C#
Back up, back up, back up and wine it
D#m
Oh yeah, very long time
D#m
Back, up, back up and wine it, girl


[Kyla + Wizkid] 

E|---------------3-3---3-3---------------------------------------------------|
B|---------------3-3---3-3---1-1---1-1---1-1---1-1---------------------------|
G|---0-0---0-0---0-0---0-0---2-2---2-2---2-2---2-2---------------------------|X4
D|---2-2---2-2---------------2-2---2-2---2-2---2-2---------------------------|
A|---2-2---2-2--------------0-----0-----0------------------------------------|
E|-0------0-----3-----3-----------------------0------------------------------|

Tell me
I need to know, where do you wanna go?
Cause if you're down, I'll take it slow
Make you lose control
Where, where, where
Where, where, where, where
Oh yeah, very long time
Where, where, where
Back, up, back up and wine it, girl
Where, where, where, where
Cause if you're down
Back up, back up and
Cause if you're down
Back up, back up and
Cause if you're down
Back up, back up and


[Drake]

           A#m
That's why I need a one dance
           C#
Got a Hennessy in my hand
         D#m
One more time 'fore I go
              D#m
Higher powers taking a hold on me
A#m
I need a one dance
           C#
Got a Hennessy in my hand
         D#m
One more time 'fore I go
              D#m
Higher powers taking a hold on me
reproducciones 1.832
Acordes para:
    Colaboración y revision:
    • emanuel fonseak

    0 comentarios

    mostrar más comentarios

    ¿Conseguiste tocar?

    6 tocaron 2 aún no

    ¡Graba un vídeo tocando One dance y envianoslo!

    00:00 / 00:00
    outros vídeos desta música
    repetir qualidade Automático
    Outros vídeos desta música
    00:00 / 00:00
    Automático
    OK