Cifra Club

Passionfruit

Drake

Tablatura: Principal (guitarra)
Tom: B
Intro:
 E6                   C#m7                D#m7               F#     E6

E|--14-----|------------14-----|------------------|--------------|---------------|
B|------14-|-11b12r11------11--|--11--9----11-----|--11--14------|-----12----14--|
G|---------|-------------------|--------11----11--|----------13--|--13----13-----|
D|---------|-------------------|------------------|--------------|---------------|
A|---------|-------------------|------------------|--------------|---------------|
E|---------|-------------------|------------------|--------------|---------------|

Verso 1:
E6                           C#m7
Listen, seeing you got ritualistic
                             D#m7
Cleansin' my soul of addiction for now
                          F#     E6
'Cause I'm fallin' apart, yeah
E6                           C#m7
Tension between us just like picket fences
                             D#m7
You got issues that I won't mention for now
                          F#     E6
'Cause we're fallin' apart

Refrão:
E6
Passionate from miles away
             C#m7
Passive with the things you say
                 D#m7
Passin' up on my old ways
                          F#     E6
I can't blame you, no, no
E6
Passionate from miles away
             C#m7
Passive with the things you say
                 D#m7
Passin' up on my old ways
                          F#     E6
I can't blame you, no, no

 E6                   C#m7                D#m7               F#     E6

E|--14-----|------------14-----|------------------|--------------|---------------|
B|------14-|-11b12r11------11--|--11--9----11-----|--11--14------|-----12----14--|
G|---------|-------------------|--------11----11--|----------13--|--13----13-----|
D|---------|-------------------|------------------|--------------|---------------|
A|---------|-------------------|------------------|--------------|---------------|
E|---------|-------------------|------------------|--------------|---------------|

Verso 2:
E6                                    C#m7
Listen, hard at buildin' trust from a distance
                             D#m7
I think we should rule out commitment for now
                          F#     E6
'Cause we're fallin' apart
E6                                      C#m7
Leavin', you're just doing that to get even
                         D#m7
Don't pick up the pieces, just leave it for now
                        F#     E6
They keep fallin' apart

Refrão:
E6
Passionate from miles away
             C#m7
Passive with the things you say
                 D#m7
Passin' up on my old ways
                          F#     E6
I can't blame you, no, no
E6
Passionate from miles away
             C#m7
Passive with the things you say
                 D#m7
Passin' up on my old ways
                          F#     E6
I can't blame you, no, no
reproducciones 430
Acordes para:
    Composição: Drake / Nana Rogues Colaboración y revision:
    • Isabelle Oliveira

    0 comentarios

    mostrar más comentarios

    ¿Conseguiste tocar?

    4 tocaron 1 aún no

    ¡Graba un vídeo tocando Passionfruit y envianoslo!

    00:00 / 00:00
    outros vídeos desta música
    repetir qualidade Automático
    Outros vídeos desta música
    00:00 / 00:00
    Automático
    OK