Cifra Club

Oresundsvisan

Drengene Fra Angora

Cifrado: Principal (guitarra y guitarra eléctrica)
Selo Cifra Club: esta cifra foi revisada para atender aos critérios oficiais da nossa Equipe de Qualidade.
tono: G
   _______________________
 / Öresunds-visan       /  dansk-angorianske sangskat.
/______________________/  'Den handler om nordisk fællesskab.' -Simon Kvamm


 Intro:
  D                 A7sus4            D                 A7sus4
|-----2-------2---|-----0-------0---|-----2-------2---|---------0-------|
|-----3-------3---|-----3-------3---|-----3-------3---|-------3---------|
|---2---2---2---2-|---0---0---0---0-|---2---2---2---2-|-----0-----------|
|-0-------0-------|-----------------|-0-------0-------|---2-------------|
|-----------------|-0-------0-------|-----------------|-0---------------|
|-----------------|-----------------|-----------------|-----------------|
 (Teksten står nederst i tab'en)


 Vers:
  D       Gm        D                 D       Gm        Em      A
|-----2-------3---|-----2-------2---|-----2-------3---|-----0-------0---|
|-----3-------3---|-----3-------3---|-----3-------3---|-----0-------2---|
|---2---2---3---3-|---2---2---2---2-|---2---2---3---3-|---0---0---2---2-|
|-0---------------|-0-------0-------|-0---------------|-----------------|
|-----------------|-----------------|-----------------|---------0-------|
|---------3-------|-----------------|---------3-------|-0---------------|

  D       Gm        D                 D       Gm        Em      A
|-----2-------3---|-----2-------2---|-----2-------3---|-----0-------0---|
|-----3-------3---|-----3-------3---|-----3-------3---|-----0-------2---|
|---2---2---3---3-|---2---2---2---2-|---2---2---3---3-|---0---0---2---2-|
|-0---------------|-0-------0-------|-0---------------|-----------------|
|-----------------|-----------------|-----------------|---------0-------|
|---------3-------|-----------------|---------3-------|-0---------------|



 Pre-Chorus:
  G                 Gm                D                 A
|-----3-------3---|-----3-------3---|-----2-------2---|-----0---0-------|
|-----0-------0---|-----3-------3---|-----3-------3---|-----2---2-------|
|---0---0---0---0-|---3---3---3---3-|---2---2---2---2-|---2---2---------|
|-----------------|-----------------|-0-------0-------|-----------------|
|-----------------|-----------------|-----------------|-0---------------|
|-3-------3-------|-3-------3-------|-----------------|-----------------|



 Omkvæd:
  D                 A                 G                 Gm
|-----2-------2---|-----0-------0---|-----3-------3---|-----3-------3---|
|-----3-------3---|-----2-------2---|-----0-------0---|-----3-------3---|
|---2---2---2---2-|---2---2---2---2-|---0---0---0---0-|---3---3---3---3-|
|-0-------0-------|-----------------|-----------------|-----------------|
|-----------------|-0-------0-------|-----------------|-----------------|
|-----------------|-----------------|-3-------3-------|-3-------3-------|

  D                 A
|-----2-------2---|-----0-------0---|
|-----3-------3---|-----2-------2---|
|---2---2---2---2-|---2---2---2---2-|
|-0-------0-------|-----------------|
|-----------------|-0-------0-------|
|-----------------|-----------------|



 Vers


 Pre-Chorus


 2x Omkvæd


(sidste takt i * omkvæd lige inden C-stykket):
  A
|-----0-------0---|
|-----2-------2---|
|---2---2---2-----|
|-----------------|
|-0-------0-------|
|---------------3-|



 C-stykke:
  F#                Bm                F#                Bm               
|-----2-------2---|-----2-------2---|-----2-------2---|-----2-------2---|
|-----2-------2---|-----3-------3---|-----2-------2---|-----3-------3---|
|---3---3---3---3-|---4---4---4---4-|---3---3---3---3-|---4---4---4---4-|
|-----------------|-----------------|-----------------|-----------------|
|-----------------|-2-------2-------|-----------------|-2-------2-------|
|-2-------2-------|-----------------|-2-------2-------|-----------------|

  A                 D       B/d#      Em                A       D
|-----0-------0---|-----2-------2---|-----0-------0---|-----0-------2---|
|-----2-------2---|-----3-------0---|-----0-------0---|-----2-------3---|
|---2---2---2---2-|---2---2---2---2-|---0---0---0---0-|---2---2---2---2-|
|-----------------|-0-------1-------|-----------------|---------0-------|
|-0--------0------|-----------------|-----------------|-0---------------|
|-----------------|-----------------|-0-------0-------|-----------------|

  A7
|---------0-------|
|-------2---------|
|-----0-----------|
|---2-------------|
|-0---------------|
|-----------------|



 2x Omkvæd


 Outro:
  D       Gm        D
|-----2-------3---|-------2---------|
|-----3-------3---|-----3---3^------|
|---2---2---3---3-|---2-----2^------|
|-0---------------|-0-------0^------|
|-----------------|-----------------|
|---------3-------|-----------------|



I en liten bot - sittar vi och kyssar
Midt på Øresund - sidder to forelsked' bøsser

En elskovsstund på Öresund
Kys mig med din fuldskægsmund
Javist, min danska ven 

För vi knullar ut på sundet - det' vor hemliga tradition
Vi kæler lidt og nusser blidt - och smager lidt på korven hos verandre
Smak på korven min

Hov, hvad er nu det - der' en båd der kommer nærmer'

Hej på dig, jeg hetter Kjell - får jeg vare med i kvell?
Ja ja, naturligvis

För vi knullar ut' på sundet - det er godt at vare tre
Båten vipper litt, vi boller blidt, och ni kan tro vi får den i kanalen - i kanalen 

Ja, vi knullar ut' på sundet - får jeg bappe på din orm?
Vor krammebjørn 

Ja, vi knullar ut' på sundet - vi har et kjæmpe homsetref
Du er så smuk, får jeg se din kuk
Det kan du tro, jeg har ikke noe bukser på
Ikke nogen bukser på

Nu har vi knullat ut' på sundet - og dyrket numsegymnastik
Vi ses igjen, adjö min ven
Ja, næste lørdag knullar vi på Öresund
Nok engang, nok engang


- 26th /October /07
Just mail me at M* with questions, comments and corrections!
Otros videos de esta canción
    72 exhibiciones
      • ½ Tono
      • A
      • Bb
      • B
      • C
      • Db
      • D
      • Eb
      • E
      • F
      • F#
      • G
      • Ab
    • Agregar a la lista

    Afinação da cifra

    Afinador online

      Ops (: Contenido disponible solo en portugués.
      OK