Cifra Club

Im Shipping Up To Boston

Dropkick Murphys

Cifrado: Principal (guitarra y guitarra eléctrica)
tono: A
E|-----------------------7----------------------|
B|-------------6-7-6-------9-7--9-7-6-7-6-------|
G|-9--7-9--7-9-------9-7------------------7-9---|
D|----------------------------------------------|
A|----------------------------------------------|
E|----------------------------------------------|

E|----------------------------------------------7--:|
B|---------------6-7-6----------------------6-7----:|
G|-7-9--7-9--7-9-------9-7-9--7-9--7-9--7-9--------:| (3x)
D|-------------------------------------------------:|
A|-------------------------------------------------:|
E|-------------------------------------------------:|

E|-----------------------7----------------------|
B|-------------6-7-6-------9-7--9-7-6-7-6-------|
G|-9--7-9--7-9-------9-7------------------7-9---|
D|----------------------------------------------|
A|----------------------------------------------|
E|----------------------------------------------|

E|------------------9-10-9-------------------------------9-10-14-|
B|-12--10-12--10-12--------12-10-12--10-12--10-12--10-12---------|
G|---------------------------------------------------------------|
D|---------------------------------------------------------------|
A|---------------------------------------------------------------|
E|---------------------------------------------------------------|

E|------------------9-10-9-------14-12-10-12-10---10-----------:|
B|-12--10-12--10-12--------12-10---------------14---14--10-12--:|
G|-------------------------------------------------------------:|
D|-------------------------------------------------------------:| (2x)
A|-------------------------------------------------------------:|
E|-------------------------------------------------------------:|

Composición de Al Barr / James Lynch / Ken Casey / Marc Orrell / Matt Kelly / Woody Guthrie
Colaboración y revisión:
2.224 vistas
    • ½ Tono
    • A
    • Bb
    • B
    • C
    • Db
    • D
    • Eb
    • E
    • F
    • F#
    • G
    • Ab
  • Agregar a la lista

    0 comentarios

    Ver todos los comentarios

    ¿Lograste tocar?

    11 Tocaron 1 Aún no

    ¡Graba un video tocando Im Shipping Up To Boston y envíanoslo!

    00:00 / 00:00
    Outros vídeos desta música
    Repetir Calidad Automático
    Outros vídeos desta música
    00:00 / 00:00
    Automático
    OK