Cifra Club

Shipping Up To Boston Intro

Dropkick Murphys

Cifrado: Principal (guitarra y guitarra eléctrica)
tono: G
e|---------------------------------------7----------------------7-5---5------|
B|-----------7-8-7-------------------7-8--------------7-8-7---------8---8-7--|
G|-9-7-9-7-9-------9-7-9-7-9-7-9-7-9--------9-7-9-7-9-------9-7--------------|
D|---------------------------------------------------------------------------|
A|---------------------------------------------------------------------------|
E|---------------------------------------------------------------------------|
       Either the B or G frets work, depends on your preference
e|---------------------------------------------------------------------------|
B|-8-7-----------------------------------------------------------------------|
G|-----7-9-------------------------------------------------------------------|
D|---------------------------------------------------------------------------|
A|---------------------------------------------------------------------------|
E|---------------------------------------------------------------------------|


Compositor não encontrado.
26 vistas
    • ½ Tono
    • A
    • Bb
    • B
    • C
    • Db
    • D
    • Eb
    • E
    • F
    • F#
    • G
    • Ab
  • Agregar a la lista

    0 comentarios

    Ver todos los comentarios

    ¿Lograste tocar?

    0 Tocaron 0 Aún no

    ¡Graba un video tocando Shipping Up To Boston Intro y envíanoslo!

    00:00 / 00:00
    Outros vídeos desta música
    Repetir Calidad Automático
    Outros vídeos desta música
    00:00 / 00:00
    Automático
    OK