Cifra Club

Shipping Up To Boston

Dropkick Murphys

Cifrado: Principal (guitarra y guitarra eléctrica)
tono: C
e----------------5------------------------6---------------5------------------|
b------------6-8---6-8----------------6-8--------------6-8--6-8--------------|
g--9-7-9-7-9---------------9-7-9-7-9---------9-7-9-7-9-----------------------|
d----------------------------------------------------------------------------|
a----------------------------------------------------------------------------|
e----------------------------------------------------------------------------|

e--10-8-7--------------------------------------------------------------------|
b---------10-8-7-------------------------------------------------------------|
g----------------10-9-7-9----------------------------------------------------|
d----------------------------------------------------------------------------|
a----------------------------------------------------------------------------|
e----------------------------------------------------------------------------|
                                  x15

and thats the whole song its the banjo part on guitar
Composición de Al Barr / James Lynch / Ken Casey / Marc Orrell / Matt Kelly / Woody Guthrie
35 vistas
    • ½ Tono
    • A
    • Bb
    • B
    • C
    • Db
    • D
    • Eb
    • E
    • F
    • F#
    • G
    • Ab
  • Agregar a la lista

    0 comentarios

    Ver todos los comentarios

    ¿Lograste tocar?

    1 Tocaron 0 Aún no

    ¡Graba un video tocando Shipping Up To Boston y envíanoslo!

    00:00 / 00:00
    Outros vídeos desta música
    Repetir Calidad Automático
    Outros vídeos desta música
    00:00 / 00:00
    Automático
    OK