Cifra Club

The Warriors Code

Dropkick Murphys

Cifrado: Principal (guitarra y guitarra eléctrica)
tono: D
(intro)

E|----------------------------------------------|
B|----------------------------------------------|
G|-8-8-8-8-8-10-10-10-12-12-12-12-12-13-13-13---|
D|-8-8-8-8-8-8--8--8--8--8--8--8--8--8--8--8----|
A|----------------------------------------------|
E|----------------------------------------------|

E|----------------------------------------------|
B|----------------------------------------------|
G|-10-10-10-10-10-8-8-8-------------------------|
D|-8--8--8--8--8--8-8-8-12-12-12-12-12-12-12-12-|
A|-8--8--8--8--8--8-8-8-8--8--8--8--8--8--8--8--|
E|----------------------------------------------|

E|----------------------------------------------|
B|----------------------------------------------|
G|---------------------8------------------------|
D|-10-10-10-10-10-8-10--------------------------|
A|-6--6--6--6--6--6-6--6------------------------|
E|----------------------------------------------|

A                 G          D
You're the fighter you've got the fire
A                           G          D
The spirit of a warrior, the champion's heart
A                             G                   D
You fight for your life because the fighter never quits
D                       G               A
You make the most of the hand you're dealt
 A
Because the quitter never wins

( D  G  A ) (2x)

 A                             G                     D
You were born to box in a city that's seen their share
A                 G         D                              A
Miller Rye Connelly among them your photo proudly hangs there
                   G               D
Above the bar in the Gaelic Club
                                        A
They tell the story of a throwback
                G
With the heart of a lion
D
They salute your glory

( D  A  G  A )

G                         D
It's another murderous night
               A
Another left hook from hell
G                           D
A bloody war on the boardwalk
               A
And the kid from Lowell rises to the bell

(refrão)
D   G   A
Micky
D   G   A
It's a warrior's code

(ponte 4x) D   G   A

(refrão)
D   G   A
Micky
D   G   A
It's a warrior's code

( D G A ) (2x)
Composición de Dropkick Murphys
Colaboración y revisión:
  • Daniel Champoski
26 vistas
    • ½ Tono
    • A
    • Bb
    • B
    • C
    • Db
    • D
    • Eb
    • E
    • F
    • F#
    • G
    • Ab
  • Agregar a la lista

    0 comentarios

    Ver todos los comentarios

    ¿Lograste tocar?

    1 Tocaron 0 Aún no

    ¡Graba un video tocando The Warriors Code y envíanoslo!

    00:00 / 00:00
    Outros vídeos desta música
    Repetir Calidad Automático
    Outros vídeos desta música
    00:00 / 00:00
    Automático
    OK