Cifra Club

Feel Like I do

Drowning Pool

Cifrado: Principal (guitarra y guitarra eléctrica)
Selo Cifra Club: esta cifra foi revisada para atender aos critérios oficiais da nossa Equipe de Qualidade.
tono: G
Tuning: Drop B

E|---------------------------------------------------------------------------|
B|---------------------------------------------------------------------------|
G|---------------------------------------------------------------------------|
D|---------------------------------------------3-----------------------------|
A|-------------3-------------------3----5-3-5-----5-3-5----------------------|
E|---0--0-3-5------5--3----0-0-3-5-------------------------------------------|

E|-----------------------------------------------------------------------------|
B|-----------------------------------------------------------------------------|
G|-----------------------------------------------------------------------------|
D|-----------------------------------------------------------------------------|
A|----------3------------------------------------3-----------------------------|
E|-0-0-3-5----5-3-0p6p0p6p0p6p0p6-0p5p0p5p0p5p0--3-----------------------------|

E|---------------------------------------------------------------------------|
B|---------------------------------------------------------------------------|
G|---------------------------------------------------------------------------|
D|------------------------------------------------3-5------------------------|
A|--0-3-0-0--3-0--0-3-------0-3-0-0--0-0------3-5----------------------------|
E|--0-3-0-0--3-0--0-3-------0-3-0-0--0-0--3-5--------------------------------|
x x x x  x x  x         x x x x  x x

E|-----------------------------------------------------------------------------|
B|-----------------------------------------------------------------------------|
G|-----------------------------------------------------------------------------|
D|-----------------------------------------------------------------------------|
A|--0-3-0-0--3-0--0-3----------------------------------------------------------|
E|--0-3-0-0--3-0--0-3---0p6p0p6p0p6p0p6-0p5p0p5p-------------------------------|
x x x x  x x  x

E|---------------------------------------------------------------------------|
B|---------------------------------------------------------------------------|
G|---------------------------------------------------------------------------|
D|-------------------------------------------------10--12--------------------|
A|-----------------------------------------10---12---------------------------|
E|----12-12-12-12-12-12-12-12------10--12------------------------------------|

E|---------------------------------------------------------------------------|
B|---------------------------------------------------------------------------|
G|---------------------------------------------------------------------------|
D|--------------------------------------------10-12----------10-12-----------|
A|--------------------------------------10-12---------10--12-----------------|
E|--12-12-12-12-12-12-12-12-12-12-10-12--------------------------------------|

E|---------------------------------------------------------------------------|
B|---------------------------------------------------------------------------|
G|---------------------------------------------------------------------------|
D|-------------------------------------------------10--12--------------------|
A|-----------------------------------------10---12---------------------------|
E|----12-12-12-12-12-12-12-12------10--12------------------------------------|

E|---------------------------------------------------------------------------|
B|---------------------------------------------------------------------------|
G|---------------------------------------------------------------------------|
D|--------------------------------------------10-12----------10-12-----------|
A|--------------------------------------10-12---------10--12-----------------|
E|--12-12-12-12-12-12-12-12-12-12-10-12--------------------------------------|

E|---------------------------------------------------------------------------|
B|---------------------------------------------------------------------------|
G|---------------------------------------------------------------------------|
D|----------------------------------------------------------------------3-5--|
A|--10-10-10----5-5-5--8-8-8--3--3--x-x-x--5-x-x-x-5-x-x-x--------3-5--------|
E|--10-10-10----5-5-5--8-8-8--3--3--x-x-x--5-x-x-x-5-x-x-x--3-5--------------|

E|---------------------------------------------------------------------------|
B|---------------------------------------------------------------------------|
G|---------------------------------------------------------------------------|
D|-------------------------------------------------3-5-----3-5---------------|
A|--------------x-x-x--5-x-x-x-5-x-x-x--------3-5------3-5-------------------|
E|--------------x-x-x--5-x-x-x-5-x-x-x--3-5----------------------------------|

E|---------------------------------------------------------------------------|
B|---------------------------------------------------------------------------|
G|---------------------------------------------------------------------------|
D|---------------------------------------------------------------------------|
A|--10-10-10----5-5-5---3-3---0----------------------------------------------|
E|--10-10-10----5-5-5---3-3---0----------------------------------------------|


E|---------------------------------------------------------------------------|
B|---------------------------------------------------------------------------|
G|---------------------------------------------------------------------------|
D|---------------------------------------------3-----------------------------|
A|-------------3-------------------3----5-3-5-----5-3-5----------------------|
E|---0--0-3-5------5--3----0-0-3-5-------------------------------------------|

E|-----------------------------------------------------------------------------|
B|-----------------------------------------------------------------------------|
G|-----------------------------------------------------------------------------|
D|-----------------------------------------------------------------------------|
A|----------3------------------------------------3-----------------------------|
E|-0-0-3-5----5-3-0p6p0p6p0p6p0p6-0p5p0p5p0p5p0--3-----------------------------|


Verse and chorus stay the same.

BRIDGE:

E|---------------------------------------------------------------------------|
B|---------------------------------------------------------------------------|
G|---------------------------------------------------------------------------|
D|---------------------------------------------------------------------------|
A|---------------------------------------------------------------------------|
E|--0--2-2-0-2-2-0-1-1--0--1--0----------------------------------------------|     x  x  x

                          PLAY THIS 3 TIMES BEFORE

E|---------------------------------------------------------------------------|
B|---------------------------------------------------------------------------|
G|---------------------------------------------------------------------------|
D|---------------------------------------------------------------------------|
A|---------------------------------------------------------------------------|
E|--0--2-2-2-0-2-2-2-0-2-2-2-0-2-2-2-----------------------------------------|


                               Solo


E|---------------------------------------------------------------------------|
B|-15-15--13--13--12--10-10h10-----------------------------------------------|
G|------------------------------12b14----------------------------------------|
D|---------------------------------------------------------------------------|
A|---------------------------------------------------------------------------|
E|---------------------------------------------------------------------------|

Otros videos de esta canción
    56 exhibiciones
      • ½ Tono
      • A
      • Bb
      • B
      • C
      • Db
      • D
      • Eb
      • E
      • F
      • F#
      • G
      • Ab
    • Agregar a la lista

    Afinação da cifra

    Afinador online

      Ops (: Contenido disponible solo en portugués.
      OK