Cifra Club

Rebel Yell

Drowning Pool

Cifrado: Principal (guitarra y guitarra eléctrica)
Selo Cifra Club: esta cifra foi revisada para atender aos critérios oficiais da nossa Equipe de Qualidade.
tono: F#m
intro

guitar 1


E|-14-14-14-14-14-14-14-14--|
B|--------------------------|
G|-11-11-11-11-11-11-11-11--| x 4
D|--------------------------|
A|--------------------------|
E|--------------------------|

guitar 2
E|--------------|
B|--------------|
G|--------------| x4
D|-----2-4------|
A|---4----------|
E|-2------------|

guitar 1                                                             end

E|---------------------------------------------------------------| -----|
B|-14-12-14-----14-12-14-----14-12-14-----14-12-14---------------| x2   -----|
G|----------14-----------14-----------14-----------14------------| -----|
D|---------------------------------------------------------------| -4---|
A|---------------------------------------------------------------| -4---|
E|---------------------------------------------------------------| -2---|

guitar 2

E|-----------------------------------------------------------------------------------|
B|-----------------------------------------------------------------------------------|
G|-----------------------------------------------------------------------------------| x2
D|-----------------------------------------------------------------------------------|
A|----------------------12-12-----------11--11-------------9-9-----------9---9-------|
E|-10-10-10-10-10-10-10-10-10-9-9-9-9-9-9-9-9--7-7-7-7-7-7-7-7-7-7-7-7-7-7-7-7-------|


end

E|--------|
B|--------|
G|--------|
D|--------|
A|-7-2-4--|
E|-5-0-2--|


verse 1

E|------------------|
B|------------------|
G|------------------| x4
D|------------------|
A|-----4-----4---4--|
E|-2-2-2-2-2-2-2-2--|

E|------------------|
B|------------------|
G|------------------| x2
D|------------------|
A|-----2-----2---2--|
E|-0-0-0-0-0-0-0-0--|

E|---------------------------------------|
B|---------------------------------------|
G|---------------------------------------|
D|---------------------------------------|
A|-------12-------12----12-----9---7-2---|
E|-10-10-10-10-10-10-10-10-7-7-7-7-5-0---|


chorus

E|----------------------------------------------------------------------------------|
B|----------------------------------------------------------------------------------|
G|----------------------------------------------------------------------------------| x2
D|------------------2-4-------------------------------------------------------------|
A|-4-4-------4-4--4------2-2-------2-2---------12----------------------9-------7-2--|
E|-2-2-2-2-2-2-2---------0-0-0-0-0-0-0-0-0-0-0-10-10-10-10-10-10-10-10-7-7-7-7-5-0--|


pre solo


E|------------------------------------|
B|------------------------------------|
G|------------------------------------|
D|-----2-4------2-4-----2-4--4--------|
A|---4--------4-------4------2--------|
E|-2--------2-------2-----------------|


solo


E|---------------------------------------------------------------|
B|---------10----------------------------------------------------|
G|---------------------------------------------------------------|
D|-9-10-11----9-10-11-9-10-11-9-10-11-9-10-11--------------------|
A|--------------------------------------------9----12--12-14-----|
E|-----------------------------------------------------------14--|

E|--------------------------------------------------12-14--14-17--19-17------|
B|----------------------------------12--------12-15---------------------19---|
G|----------------------------12-14--------14--------------------------------|
D|----------------------12-14-----------14-----------------------------------|
A|----------------12-14------------------------------------------------------|
E|-12-14-12-14-12------------------------------------------------------------|

E|-----------------------------------------------------------------------------------|
B|-------------------------12-10------12-10------12-10------12-10------12-10---------|
G|----------10---10b--9-11-------11-9-------11-9-------11-9-------11-9-------11-9----|
D|--7h---11------11b--------------------------------------------------------------11-|
A|-----------------------------------------------------------------------------------|
E|-----------------------------------------------------------------------------------|

E|-------------------------------------------------------17b-17b---------|
B|-17b---------17-17b-------17-17b-------17-17b-------17-----------------|
G|------16-18---------16-18--------16-18--------16-18--------------------|
D|-----------------------------------------------------------------------|
A|-----------------------------------------------------------------------|
E|-----------------------------------------------------------------------|


after solo

E|--------------------------------------|
B|--------------------------------------|
G|--------------------------------------|
D|--------------------------------------|
A|---4-4------4-4------4-4------4-4-----|
E|-2-2-2----2-2-2----2-2-2----2-2-2-----|


E|----------------------------5----------------14-12----12-------------|
B|--7--------5--------3---0------5--7----------------14----14-12-------|
G|---------------------------------------------------------------11----|
D|---------------------------------------------------------------------|
A|---------------------------------------------------------------------|
E|---------------------------------------------------------------------|


E|-14-12----12-------------------12------------14-12----12-------------|
B|-------14----14-12-----14--12----------14----------14----14-12-------|
G|-------------------11--------------11--------------------------11----|
D|---------------------------------------------------------------------|
A|---------------------------------------------------------------------|
E|---------------------------------------------------------------------|

E|-14-12----12-------------------12------------14-12----12-------------|
B|-------14----14-12-----14--12----------14----------14----14-12-------|
G|-------------------11--------------11--------------------------11----|
D|---------------------------------------------------------------------|
A|---------------------------------------------------------------------|
E|---------------------------------------------------------------------|

E|-14-12----12-------------------12------------14-12----12-------------|
B|-------14----14-12-----14--12----------14----------14----14-12-------|
G|-------------------11--------------11--------------------------11----|
D|---------------------------------------------------------------------|
A|---------------------------------------------------------------------|
E|---------------------------------------------------------------------|

E|-14-12----12-------------------12-14-16\--------|
B|-------14----14-12-----14--12-------------------|
G|-------------------11---------------------------|
D|------------------------------------------------|
A|------------------------------------------------|
E|------------------------------------------------|


outro

E|--------------------------------------------------------------------------------------------------|
B|--------------------------------------------------------------------------------------------------|
G|--------------------------------------------------------------------------------------------------|
D|--------------------------------------------------------------------------------------------------|
A|-----4-----4---4-----4---7-7-7-7-----4-----4---4-----4-----4---4-----2-----2---2-----2-----2---2--|
E|-2-2-2-2-2-2-2-2-2-2-2-2-5-5-5-5-2-2-2-2-2-2-2-2-2-2-2-2-2-2-2-2-0-0-0-0-0-0-0-0-0-0-0-0-0-0-0-0--|


E|----------------------------------------|
B|----------------------------------------|
G|----------------------------------------| x2
D|----------------------------------------|
A|-12--------------------------7---7-2-4--|
E|-10-10-10-10-10-10-10-10-9-9-9-9-5-0-2--|

E|------------------------------|
B|------------------------------|
G|------------------------------|
D|------------------------------|
A|-4---4---4-4---4---44---------|
E|-2-x-2-x-2-2-x-2-x-22---------|
Otros videos de esta canción
    0 exhibiciones
      • ½ Tono
      • Am
      • Bbm
      • Bm
      • Cm
      • C#m
      • Dm
      • Ebm
      • Em
      • Fm
      • F#m
      • Gm
      • G#m
    • Agregar a la lista

    Afinação da cifra

    Afinador online

      Ops (: Contenido disponible solo en portugués.
      OK