Cifra Club

Reborn

Drowning Pool

Cifrado: Principal (guitarra y guitarra eléctrica)
Selo Cifra Club: esta cifra foi revisada para atender aos critérios oficiais da nossa Equipe de Qualidade.
tono: Bm
E|-------0-----------------0-------------0-----------------0-------|
B|-----0---0-------0---------0---------0---0-------0-----0---0-----|
G|-----------------------------------------------------------------|
D|---9-------9---12--12--12----12----12------12--12----14------14--|
A|-7-----------10------10--------1010----------10----12----------12|
E|-----------------------------------------------------------------|

0:05
Gtr1: repeat Intro part A 2x
Gtr2:
E|-14--------------------------------------------------------141414|
B|-------------15--------------------------------------------------|
G|-----------------------------------------------------------------|
D|-----------------------------------------------------------------|
A|-----------------------------------------------------------------|
E|-----------------------------------------------------------------|

E|-14--------------------------------------------------------141414|
B|-------15--------------------------------------------------------|
G|-------------14--------------------------------------------------|
D|-----------------------------------------------------------------|
A|-----------------------------------------------------------------|
E|-----------------------------------------------------------------|

0:17 - Intro part B
Gtr1:
E|-------0-----------------0---------------------------------------|
B|-----0---0-------0---------0-------------------------------------|
G|-----------------------------------------------------------------|
D|---9-------9---12--12--12----------------------------------------|
A|-7-----------10------10------------------------------------------|
E|-----------------------------------------------------------------|
Gtr2:
E|-14--------------------------------------------------------------|
B|-------------15--------------------------------------------------|
G|-----------------------------------------------------------------|
D|---------------------------------5-5-5-5-5-5-5-5-7-7-7-7-7-7-7\--|
A|---------------------------------5-5-5-5-5-5-5-5-7-7-7-7-7-7-7\--|
E|---------------------------------5-5-5-5-5-5-5-5-7-7-7-7-7-7-7\--|
                                    . . . . . . . . . . . . gradually release

0:22 - Chorus
Gtr1:
E|-----------------------------------------------------------------|
B|-----------------------------------------------------------------|
G|-----------------------------------------------------------------|
D|-2-----2-2p0-0-----0-0---0---0-0-5-5-5-5-0-0-2-----2-2-2-0h2-0---|
A|-2-----2-2p0-0-----0-0---0---0-0-5-5-5-5-0-0-2-----2-2-2-0h2-0---|
E|-2-----2-2p0-0-----0-0---0---0-0-5-5-5-5-0-0-2-----2-2-2-0h2-0---|
                                            . .
E|-----------------------------------------------------------------|
B|-----------------------------------------------------------------|
G|-----------------------------------------------------------------|
D|-2-----2-2p0-0-----0-0---0---0-0-5-5-5-5-0-0-5-5-5-5-0-0-5/7-7---|
A|-2-----2-2p0-0-----0-0---0---0-0-5-5-5-5-0-0-5-5-5-5-0-0-5/7-7---|
E|-2-----2-2p0-0-----0-0---0---0-0-5-5-5-5-0-0-5-5-5-5-0-0-5/7-7---|
                                            . .         . .

0:34 - Verse
Gtr1: repeat 4x
E|-0---0-0-0-0-0---0-0-0---0---0-0-0---0-0-0-0-0---0-0-0---0---0-0-|
B|-0---0-0-0-0-0---0-0-0---0---0-0-0---0-0-0-0-0---0-0-0---0---0-0-|
G|-x---x-x-x-x-x---x-x-x---x---x-x-x---x-x-x-x-x---x-x-x---x---x-x-|
D|-9---9-9-9-9-12--121212--12--121212--1212121212--121414--14--1414|
A|-7---7-7-7-7-10--101010--10--101010--1010101010--101212--12--1212|
E|-----------------------------------------------------------------|

0:57
Gtr1: repeat Chorus 2x

1:20 - Solo 1
Gtr1: repeat 2x
E|-----------------------------------------------------------------|
B|-----------------------------------------------------------------|
G|-----------------------------------------------------------------|
D|-2-----2-2/5-5-----5-5---5-----5-5-5---5-5-5---5-5/7-7-7-7-7-7\--|
A|-2-----2-2/5-5-----5-5---5-----5-5-5---5-5-5---5-5/7-7-7-7-7-7\--|
E|-2-----2-2/5-5-----5-5---5-----5-5-5---5-5-5---5-5/7-7-7-7-7-7\--|
Gtr2:
E|---------------------------------15p12h15p12---------------------|
B|--------------------------------------------15-12br--------------|
G|-14br-12-14-14-14-12--------------------------------12-10----10--|
D|----------------------------------------------------------12-----|
A|-----------------------------------------------------------------|
E|-----------------------------------------------------------------|
XXX
E|----------------------10brbr-------------------------------------|
B|-----------------------------------------------------------------|
G|-12b-9--12b-9--------------------1412--12------------------------|
D|-------------------------------------14--1412------1412----------|
A|-------------------------------------------------------14131210\-|
E|-----------------------------------------------------------------|


1:31
Gtr1: repeat Verse 4x
Gtr2:
E|-14--------------------------------------------------------141414|
B|-------------15--------------------------------------------------|
G|-----------------------------------------------------------------|
D|-----------------------------------------------------------------|
A|-----------------------------------------------------------------|
E|-----------------------------------------------------------------|

E|-14--------------------------------------------------------------|
B|-------15--------------------------------------------------------|
G|-------------14--------------------------------------------------|
D|-----------------------------------------------------------------|
A|-----------------------------------------------------------------|
E|-----------------------------------------------------------------|


1:55 repeat Chorus 2x

2:18
Gtr1: repeat 4x
E|-0---0-0-0-0-0-----------------------------------0-0-----0---0-0-|
B|-0---0-0-0-0-0-----------------------------------0-0-----0---0-0-|
G|-x---x-x-x-x-x-----------------------------------x-x-----x---x-x-|
D|-9---9-9-9-9-12----------------------------------1214----14--1414|
A|-7---7-7-7-7-10----------------------------------1012----12--1212|
E|-----------------------------------------------------------------|
Gtr2: XXX
E|-----------------------------------------------------------------|
B|-----------------10b-10-8h10p8-8---------10| Br--------------------|
G|------------------------------9----------------------------------|
D|-----------------------------------------------------------------|
A|-----------------------------------------------------------------|
E|-----------------------------------------------------------------|

E|-15--------------------------------------------------------------|
B|---------------------------------------15| Br----------------------|
G|-----------------------------------------------------------------|
D|-----------------------------------------------------------------|
A|-----------------------------------------------------------------|
E|-----------------------------------------------------------------|


2:41
Gtr1: repeat Verse (1x)

2:47
E|-0---0-0-0-0-0---0-0-0---0---0-0-0-0-0-0-0-0-0-0-0-0-0-0-0-0-0---|
B|-0---0-0-0-0-0---0-0-0---0---0-0-0-0-0-0-0-0-0-0-0-0-0-0-0-0-0---|
G|-x---x-x-x-x-x---x-x-x---x---x-x-x-x-x-x-x-x-x-x-x-x-x-x-x-x-x---|
D|-9---9-9-9-9-12--121212--12--1212121212121212121214141414141414--|
A|-7---7-7-7-7-10--101010--10--1010101010101010101012121212121212--|
E|-----------------------------------------------------------------|
Gtr2:
E|-----------------------------------------------------------------|
B|-----------------------------------------------------------------|
G|-----------------------------------------------------------------|
D|---------------------------------5-5-5-5-5-5-5-5-7-7-7-7-7-7-7\--|
A|---------------------------------5-5-5-5-5-5-5-5-7-7-7-7-7-7-7\--|
E|---------------------------------5-5-5-5-5-5-5-5-7-7-7-7-7-7-7\--|
                                    . . . . . . . . . . . . gradually release

2:53 Solo 2
Gtr1: repeat 2x
E|-----------------------------------------------------------------|
B|-----------------------------------------------------------------|
G|-----------------------------------------------------------------|
D|-2-----2-2/5-5-----5-5---5-----5-5-5---5-5-5---5-5/7-7-7-7-7-7\--|
A|-2-----2-2/5-5-----5-5---5-----5-5-5---5-5-5---5-5/7-7-7-7-7-7\--|
E|-2-----2-2/5-5-----5-5---5-----5-5-5---5-5-5---5-5/7-7-7-7-7-7\--|

E|-----------------------------------------------------------------|
B|-----------------------------------------------------------------|
G|-----------------------------------------------------------------|
D|-2-----2-2/5-5-----5-5---5-----5-----5-----------5-------5-7-----|
A|-2-----2-2/5-5-----5-5---5-----5-5-7---7-----5-7---7-------------|
E|-2-----2-2/5-5-----5-5---5-----5---------------------------------|
                                    *3:02
Gtr2:
E|-----------------------------------------------------------------------|
B|-----------------------------------------------------------------------|
G|-------------12b14r12--------14| Br-12-14-14p12--12-------------------12-|
D|---------1214--------------------------------14--1412| Br---1412--1214---|
A|-----1214-----------------------------------------------------14-------|
E|-----------------------------------------------------------------------|
        . . 
E|-----------------------------------------------------------------------|
B|-15| Br-12--12-----------------------------------------------------------|
G|--------14--141214121412-----141214\--------------12----12-14| Br--------|
D|-----------------------------------------5----1214--14----------14-----|
A|-------------------------------------5-7---7---------------------------|
E|-----------------------------------------------------------------------|
                                        *3:02

3:05 Solo 2 - continued
Gtr1: repeat 2x
E|-----------------------------------------------------------------|
B|-----------------------------------------------------------------|
G|-----------------------------------------------------------------|
D|-2-----2-2/5-5-----5-5---5-----5-5-5---5-5-5---5-5/7-7-7-7-7-7\--|
A|-2-----2-2/5-5-----5-5---5-----5-5-5---5-5-5---5-5/7-7-7-7-7-7\--|
E|-2-----2-2/5-5-----5-5---5-----5-5-5---5-5-5---5-5/7-7-7-7-7-7\--|

E|-----------------------------------------------------------------|
B|-----------------------------------------------------------------|
G|-----------------------------------------------------------------|
D|-2-----2-2/5-5-----5-5---5-------0-0-0-0-2-2-2-2-5-5-5-5-7-7-7-7-|
A|-2-----2-2/5-5-----5-5---5-------0-0-0-0-2-2-2-2-5-5-5-5-7-7-7-7-|
E|-2-----2-2/5-5-----5-5---5-------0-0-0-0-2-2-2-2-5-5-5-5-7-7-7-7-|

Gtr2:
E|-----------------------------------------------------------------|
B|-----------------------------------------------------------------|
G|-----------------------------------------------------------------|
D|-14-12-------------------------------------------7h8p7-5---5h7---|
A|-------14-13-12-10-7h10p7h10p7-5-2-1-0-0---1-2-5--------------7--|
E|-----------------------------------------------------------------|

E|-------------------------------------1212121212121215| Br----------|-12-
B|-----------------------------------------------------------------|----|
G|--------------12| Br--1414p12--121412------------------------------|----
D|----------1214-------------14------------------------------------|----|
A|-7/10-1214-------------------------------------------------------|----|
E|-----------------------------------------------------------------|----|

3:16
Gtr1: repeat Chorus

3:28
Gtr1:
E|-----------------------------------------------------------------|
B|-----------------------------------------------------------------|
G|-----------------------------------------------------------------|
D|-2-----2-2p0-0-----0-0---0---0-0-5-5-5-5-0-0-2\------------------|
A|-2-----2-2p0-0-----0-0---0---0-0-5-5-5-5-0-0-2\------------------|
E|-2-----2-2p0-0-----0-0---0---0-0-5-5-5-5-0-0-2\------------------|
                                            . .
E|-----------------------------------------------------------------|
B|-----------------------------------------------------------------|
G|-----------------------------------------------------------------|
D|-2-----2-2p0-0-----0-0---0---0-0-5-5-5-5-0-0-5-5-5-5-0-0-5/7-7---|
A|-2-----2-2p0-0-----0-0---0---0-0-5-5-5-5-0-0-5-5-5-5-0-0-5/7-7---|
E|-2-----2-2p0-0-----0-0---0---0-0-5-5-5-5-0-0-5-5-5-5-0-0-5/7-7---|
                                            . .         . .

3:39
Gtr1: repeat 2x
E|-----------------------------------------------------------------|
B|-----------------------------------------------------------------|
G|-----------------------------------------------------------------|
D|-2-----2-2/5-5-----5-5---5-----5-5-5---5-5-5---5-5/7-7-7-7-7-7\--|
A|-2-----2-2/5-5-----5-5---5-----5-5-5---5-5-5---5-5/7-7-7-7-7-7\--|
E|-2-----2-2/5-5-----5-5---5-----5-5-5---5-5-5---5-5/7-7-7-7-7-7\--|
Otros videos de esta canción
    3 exhibiciones
      • ½ Tono
      • Am
      • Bbm
      • Bm
      • Cm
      • C#m
      • Dm
      • Ebm
      • Em
      • Fm
      • F#m
      • Gm
      • G#m
    • Agregar a la lista

    Afinação da cifra

    Afinador online

      Ops (: Contenido disponible solo en portugués.
      OK