Cifra Club

Sinner

Drowning Pool

Cifrado: Principal (guitarra y guitarra eléctrica)
Selo Cifra Club: esta cifra foi revisada para atender aos critérios oficiais da nossa Equipe de Qualidade.
tono: Db
B F# B E G# C#

Intro: w/ wah

E|-----------------------------------------------------------------|
B|-----------------------------------------------------------------|
G|---------5/7-----5/8-8-8-8-8---------5/7-----5/8-8-8-81111-------|
D|-0---0-0-x-x-0-0-x-x-x-x-x-x-0---0-0-x-x-0-0-x-x-x-x-x-x-x-0-3---|
A|-0---0-0-3/5-0-0-3/6-6-6-6-6-0---0-0-3/5-0-0-3/6-6-6-6/9-9-0-3---|
E|-0---0-0-----0-0-------------0---0-0-----0-0---------------0-3---|

E|-----------------------------------------------------------------|
B|-----------------------------------------------------------------|
G|-----------------------------------------------------------------|
D|-3---3---3---3---3---3---3-2----2---2---2---1-1---1---1-1-1-0----|
A|-3---3---3---3---3---3---3-2----2---2---2---1-1---1---1-1-1-0----|
E|-3---3---3---3---3---3---3-2----2---2---2---1-1---1---1-1-1-0----|

Verses:

E|-----------------------------------------------------------------|
B|-----------------------------------------------------------------|
G|-----------------------------------------------------------------|
D|-----------------------------------------------------------------|
A|----0-0------------------------0---0-0--------------------0------|
E|----0-0------------------------0---0-0--------------------0------|

E|-----------------------------------------------------------------|
B|-----------------------------------------------------------------|
G|-----------------------------------------------------------------|
D|-----------------------------------------------------x-x-x-x-x---|
A|----0-0------------------------0---0-0-----------0-0-0-0-0-0-0-0-|
E|----0-0------------------------0---0-0-----------0-0-----------0-|

E|-----------------------------------------------------------------|
B|-----------------------------------------------------------------|
G|-----------------------------------------------------------------|
D|-----------------------------------------------------------------|
A|--------3h5-----3/6-6-6-6/9------------3h5-----3/6-6-6-6/9-------|
E|----0-0-----0-0-------------0-0----0-0-----0-0-------------0-0---|

E|-----------------------------------------------------------------|
B|-----------------------------------------------------------------|
G|-----------------------------------------------------------------|
D|-----------------------------------------------------------------|
A|--------3h5-----3/6-6-6-6/9------------3h5-----3p0---------------|
E|----0-0-----0-0-------------0-0----0-0-----0-0-----7-6-5-3-5-3---|

Chorus:

E|-----------------------------------------------------------------|
B|-----------------------------------------------------------------|
G|----------7----7-7---7-7-7-7--7\5----5---5-5----5---4---4---5----|
D|-0----0---x----x-x---x-x-x-x--x-x----x---x-x----x---x---x---3----|
A|-0----0---5----5-5---5-5-5-5--5\3----3---3-3----3---2---2---3----|
E|-0----0-----------------------------------------------------3----|

E|-----------------------------------------------------------------|
B|-----------------------------------------------------------------|
G|---------14----14-14-14-14-14-14\12--12--12--12-12---12-12---12--|
D|-0----0---x-----x--x--x--x--x--x--x---x---x---x--x----x--x----x--|
A|-0----0--12----12-12-12-12-12-12\10--10--10--10-10---10-10---10--|
E|-0----0---0-----0--0--0--0--0------------------------------------|

E|-----------------------------------------------------------------|
B|-----------------------------------------------------------------|
G|----------7----7-7---7-7-7-7--7\5----5---5-5----5---4---4---5----|
D|-0----0---x----x-x---x-x-x-x--x-x----x---x-x----x---x---x---3----|
A|-0----0---5----5-5---5-5-5-5--5\3----3---3-3----3---2---2---3----|
E|-0----0-----------------------------------------------------3----|

E|-----------------------------------------------------------------|
B|-----------------------------------------------------------------|
G|---------14----14-14-14-14-14-14\12--12------5--5----5--5--7-----|
D|-0----0---x-----x--x--x--x--x--x--x---x------x--x----x--x--x-----|
A|-0----0--12----12-12-12-12-12-12\10--10------3--3----3--3--5--0--|
E|-0----0---0-----0--0--0--0--0---------------------------------0--|

Intro/Verse/Chorus

Bridge:

E|-----------------------------------------------------------------|
B|-----------------------------------------------------------------|
G|-----------------------------------------------------------------|
D|-0-------------3--------------5--------------6-5------6-5-----x\-|
A|-0-------------3--------------5--------------6-5------6-5-----x\-|
E|-0-------------3--------------5--------------6-5------6-5-----x\-|

Mini Solo: w/ wah

gtr. 3

E|-----------------------------------------------------------------|
B|-----------------------------------------------------------------|
G|-----------------------------------------------------------------|
D|-6p0-5p0-3h5-0-6p0-5p0-3h5p3-5---6p0-5p0-3h5-0-6p0-5p0-3h5p3-5---|
A|-----------------------------------------------------------------|
E|-----------------------------------------------------------------|

gtr. 1&2

E|-----------------------------------------------------------------|
B|-----------------------------------------------------------------|
G|-----------------------------------------------------------------|
D|-----------------------------------------------------------------|
A|-----------------------------------------------------------------|
d-6p0-5p0-3-5-0-6p0-5-5-3-5-3-5-3-6p0-5p0-3-5-0-6p0-5-5-3-5-3-5-3-

gtr. 3

E|-----------------------------------------------------------------|
B|-----------------------------------------------------------------|
G|-----------------------------------------------------------------|
D|-6p0-5p0-3h5-0-6p0-5p0-3h5p3-5---6p0-5p0-3h5-0-6p0-5p0-3h5p3p0---|
A|-----------------------------------------------------------------|
E|-----------------------------------------------------------------|

gtr. 1&2

E|-----------------------------------------------------------------|
B|-----------------------------------------------------------------|
G|-----------------------------------------------------------------|
D|-----------------------------------------------------------------|
A|---------------------------------------------------------------0-|
E|-6p0-5p0-3-5-0-6p0-5-5-3-5-3-5-3-6p0-5p0-3-5-0-6p0-5-5-3-5-3---0-|

Guitar Solo:

gtr. 4 w/ wah half cocked

E|-17--------------------------------------------------------------|
B|-20b~~~~~~~~~~~~~~~~~~~~~~~~~~~~~~~~~~~~~~~~~~~~~~~~~~~~~~~~~~~--|
G|-----------------------------------------------------------------|
D|-----------------------------------------------------------------|
A|-----------------------------------------------------------------|
E|-----------------------------------------------------------------|

gtr. 3 (trem pick)

E|-----------------------------------------------------------------|
B|-10-----------------10-----------10---------------10-------------|
G|-12b~~~~~~~~~~~~~~~-12b~~~~~~~~~-12b~~~~~~~~~~~~~-12b~~~~~~~~~~--|
D|-----------------------------------------------------------------|
A|-----------------------------------------------------------------|
E|-----------------------------------------------------------------|

gtr. 1&2

E|-----------------------------------------------------------------|
B|-----------------------------------------------------------------|
G|-----------------------------------------------------------------|
D|-6----5----0-6----6----0----0-----6----5----0-6----6----0---0----|
A|-6----5----0-6----6----0----0-----6----5----0-6----6----0---0----|
E|-6----5----0-6----6----0----0-----6----5----0-6----6----0---0----|


Outro Chorus:

x3
E|-----------------------------------------------------------------|
B|-----------------------------------------------------------------|
G|-----------7-----7--7---7-7-7-7-7\5-----5-----5--5---------------|
D|-0-----0---7-----7--7---7-7-7-7-7\5-----5-----5--5----3---3---5--|
A|-0-----0---5-----5--5---5-5-5-5-5\3-----3-----3--3----3---3---5--|
E|-0-----0----------------------------------------------3---3---5--|
Otros videos de esta canción
    22 exhibiciones
      • ½ Tono
      • A
      • Bb
      • B
      • C
      • Db
      • D
      • Eb
      • E
      • F
      • F#
      • G
      • Ab
    • Agregar a la lista

    Afinação da cifra

    Afinador online

      Ops (: Contenido disponible solo en portugués.
      OK