Cifra Club

Think

Drowning Pool

Cifrado: Principal (guitarra y guitarra eléctrica)
Selo Cifra Club: esta cifra foi revisada para atender aos critérios oficiais da nossa Equipe de Qualidade.
tono: D
E|---------------------------------------------------------------------------|
B|------0--0--------------0--0--------------0--0-----------------------------|
G|---------------------------------------------------------------------------|
D|---------------------------------------------------------------------------|
A|---------------------------------------------------------------------------|
E|-2------------0--3--2----------0--3--2------------0--3--2\-----------------|

E|---------------------------------------------------------------------------|
B|---------------------------------------------------------------------------|
G|--------------------------------------------------------X2-----------------|
D|---------------------------------------------------------------------------|
A|--2----2-5-3-2------2--5-3-2-0--2--2-5-3-2----0--3-------------------------|
E|--2----2-5-3-2------2--5-3-2-0--2--2-5-3-2----0--3-------------------------|

E|---------------------------------------------------------------------------|
B|----0----0----0----0---------0----0----0-----------------------------------|
G|--------------------------------------------0---0---0-------X4-------------|
D|---------------------------------------------------------------------------|
A|--2----3----2----3---2-0---2----3----2----3---5---3------------------------|
E|-2----3----2----3---2-0---2----3----2----3----5---3------------------------|

E|---------------------------------------------------------------------------|
B|---------------------------------------------------------------------------|
G|---------------------------------------------------------------------------|
D|---------------------------------------------------------------------------|
A|----------3-------2------2------2---0--0-------------3-------2------2------|
E|-2-2-2-2--3--3--3-2-2-2--2-3-3--2-2-0--0----2-2-2-2--3--3--3-2-2-2--2-3-3--|
 ........     ....   ...    ...    .         .......     ....   ...    ...


E|---------------------------------------------------------------------------|
B|---------------------------------------------------------------------------|
G|---------------------------------------------------------------------------|
D|----------X2---3-3---3-3---3-3---------------------------------------------|
A|5-5-3-3--------3-3---3-3---3-3---------------------------------------------|
E|5-5-3-3--------3-3---3-3---3-3---------------------------------------------|

E|---------------------------------------------------------------------------|
B|---------------------------------------------------------------------------|
G|--------------------------------------------------------X2-----------------|
D|---------------------------------------------------------------------------|
A|--2----2-5-3-2------2--5-3-2-0--2--2-5-3-2----0--3-------------------------|
E|--2----2-5-3-2------2--5-3-2-0--2--2-5-3-2----0--3-------------------------|

E|---------------------------------------------------------------------------|
B|---------------------------------------------------------------------------|
|-4-4-4-5-5-5-4-4-4-5-5-5-4-4-2-2-4-4-4-5-5-5-4-4-4-5-5-5-7-7-5-5-4-4-4-5-5-|
|-2-2-2-3-3-3-2-2-2-3-3-3-2-2-0-0-2-2-2-3-3-3-2-2-2-3-3-3-5-5-3-3-2-2-2-3-3-|
|-2-2-2-3-3-3-2-2-2-3-3-3-2-2-0-0-2-2-2-3-3-3-2-2-2-3-3-3-5-5-3-3-2-2-2-3-3-|
|-2-2-2-3-3-3-2-2-2-3-3-3-2-2-0-0-2-2-2-3-3-3-2-2-2-3-3-3-5-5-3-3-2-2-2-3-3-|

E|---------------------------------------------------------------------------|
B|---------------------------------------------------------------------------|
|5-4-4-4-5-5-5-4-4-2-2-4-4-4-5-5-5-4----------------------------------------|
|3-2-2-2-3-3-3-2-2-0-0-2-2-2-3-3-3-2----------------------------------------|
|3-2-2-2-3-3-3-2-2-0-0-2-2-2-3-3-3-2----------------------------------------|
|3-2-2-2-3-3-3-2-2-0-0-2-2-2-3-3-3-2----------------------------------------|

And just as soon...
E|---------------------------------------------------------------------------|
B|---------------------------------------------------------------------------|
|-------------------------------------------------------------X4------------|
|---------------------------------------------------------------------------|
|-2----3----2----3----2—--0----2----3----2----3----5—--3--------------------|
|-2----3----2----3----2—--0----2----3----2----3----5—--3--------------------|

E|---------------------------------------------------------------------------|
B|---------------------------------------------------------------------------|
G|---------------------------------------------------------------------------|
D|---------------------------------------------------------------------------|
A|----------3-------2------2------2---0--0-------------3-------2------2------|
E|-2-2-2-2--3--3--3-2-2-2--2-3-3--2-2-0--0----2-2-2-2--3--3--3-2-2-2--2-3-3--|
 ........    .....   ...    ...    .         .......     ....   ...    ...
E|---------------------------------------------------------------------------|
B|---------------------------------------------------------------------------|
G|---------------------------------------------------------------------------|
D|----------X2---3-3---3-3---3-3---------------------------------------------|
A|5-5-3-3--------3-3---3-3---3-3---------------------------------------------|
E|5-5-3-3--------3-3---3-3---3-3---------------------------------------------|

E|---------------------------------------------------------------------------|
B|---------------------------------------------------------------------------|
G|--------------------------------------------------------X2-----------------|
D|---------------------------------------------------------------------------|
A|--2----2-5-3-2------2--5-3-2-0--2--2-5-3-2----0--3-------------------------|
E|--2----2-5-3-2------2--5-3-2-0--2--2-5-3-2----0--3-------------------------|





E|---------------------------------------------------------------------------|
B|---------------------------------------------------------------------------|
|4------4—--7\4-4------4—---7\4--4------4-----4—--7\4--4-------2------5—--X2|
|2------2—--5\2-2------2----5\2--2--0—--2-----2—--5\2--2-------0------3-----|
|2------2—--5\2-2------2----5\2--2--0—--2-----2—--5\2--2-------0------3-----|
|2------2—--5\2-2------2----5\2--2--0---2-----2—--5\2--2-------0------3-----|

E|---------------------------------------------------------------------------|
B|---------------------------------------------------------------------------|
|----2------------4------------2------------4------------2------------------|
|----0------------2------------0------------2------------0------------------|
|----0------------2------------0------------2------------0------------------|
|----0------------2------------0------------2------------0------------------|

E|---------------------------------------------------------------------------|
B|---------------------------------------------------------------------------|
|4-4-4-5-5-5-4-4-4-5-5-5-4-4-2-2-4-4-4-5-5-5-4-4-4-5-5-5-7-7-5-5------------|
|2-2-2-3-3-3-2-2-2-3-3-3-2-2-0-0-2-2-2-3-3-3-2-2-2-3-3-3-5-5-3-3------------|
|2-2-2-3-3-3-2-2-2-3-3-3-2-2-0-0-2-2-2-3-3-3-2-2-2-3-3-3-5-5-3-3------------|
|2-2-2-3-3-3-2-2-2-3-3-5-2-2-0-0-2-2-2-3-3-3-2-2-2-3-3-3-5-5-3-3------------|

E|---------------------------------------------------------------------------|
B|---------------------------------------------------------------------------|
|------5—--5-------5—--5--4-4-2-2-4-4-4-5-----5-4-4-4-5—--5-7-7-------------|
|------3—--3-------3—--3--2-2-0-0-2-2-2-3-----3-2-2-2-3—--3-5-5-0-0---------|
|2-2-2-3—--3-2-2-2-3—--3--2-2-0-0-2-2-2-3-----3-2-2-2-3—--3-5-5-0-0---------|
|2-2-2-3—--3-2-2-2-3—--3--3-3-0-0-2-2-2-3-----3-2-2-2-3—--3-5-5-0-0---------|
 ......    ....... 
E|---------------------------------------------------------------------------|
B|---------------------------------------------------------------------------|
|7-7—---7-7----7-7----7-7----7-7-7-7----------------------------------------|
|7-7—---7-7----7-7----7-7----7-7-7-7---------3------3------3----------------|
|5-5—---5-5----5-5----5-5----5-5-5-5---------3------3------3----------------|
|5-5—---5-5----5-5----5-5----5-5-5-5---------3------3------3----------------|

|---------------------------------------------------------------------------|
|------0—-0--------------0--0--------------0--0----------------0--0---------|
E|---------------------------------------------------------------------------|
B|---------------------------------------------------------------------------|
|---------------------------------------------------------------------------|
|-2------------0--3--2----------0--3--2------------0--3--2------------------|


E|---------------------------------------------------------------------------|
B|---------------------------------------------------------------------------|
E|---------------------------------------------------------------------------|
B|---------------------------------------------------------------------------|
|---------------------------------------------------------------------------|
|0--3--2-----------0--3--2-----------0--3--2-----------0--3--2--------------|
       .           .......           .......           .......
                                                                Think!
E|---------------------------------------------------------------------------|
B|---------------------------------------------------------------------------|
|--------------------------------------------------------X6-----------------|
|---------------------------------------------------------------------------|
|-—2----2-5-3-2------2--5-3-2-0--2--2-5-3-2----0——3--------------2----------|
|--2----2-5-3-2------2--5-3-2-0--2—-2-5-3-2----0--3--------------2----------|
                                                


| /  slide up
| \  slide down
| h  hammer-on
| p  pull-off
| ~  vibrato
| +  harmonic
| x  Mute note
| .  P.M.
=============================================================================
Otros videos de esta canción
    10 exhibiciones
      • ½ Tono
      • A
      • Bb
      • B
      • C
      • Db
      • D
      • Eb
      • E
      • F
      • F#
      • G
      • Ab
    • Agregar a la lista

    Afinação da cifra

    Afinador online

      Ops (: Contenido disponible solo en portugués.
      OK