Cifra Club

Out Of My Thoughts

Dum Dums

Tab de bajo: Principal
Selo Cifra Club: esta cifra foi revisada para atender aos critérios oficiais da nossa Equipe de Qualidade.
ALBUM: IT GOES WITHOUT SAYING
TABBED BY DANNY182 E-MAIL D*


Verse & chorus - Verse is slower

G ----------------------------------|
D ----4-4-6-6-4-6-4-2-2-1-1---------|
A 2-2-----------------------4-----1-|
E ----------------------------2-4---|

Bridge 1

G --------------|
D ------------4-|
A 2-2-1-1---4---|
E --------4-----|

Bridge 2 ("Aaaaahhh...")

G ---------------------|
D --------6---------4--|
A 4-1-2-1---4-1-2-1----|
E ---------------------|

Bridge 3 ("Back to you...")

G -----------------|
D -----------------|
A 6-4-2-7-6--7-6---|
E ---------7-----6-|
Otros videos de esta canción
    8 exhibiciones

    Afinação da cifra

    Afinador online

    Ops (: Contenido disponible solo en portugués.
    OK