Cifra Club

Foi Assim

Dunga

Cifrado: Principal (guitarra y guitarra eléctrica)
tono: G
[Tab - Intro]

E|------7-7-7-7--8-8--5--3-3-3-|-----7-7-7-7---7-7--5-5---12-10--|
B|------8-8-8-8--7-7--7--5-5-5-|-----8-8-8-8---8-8--7-7---13-12--|
G|-5/7-------------------------|-5/7-----------------------------|
D|-----------------------------|---------------------------------| (2x)
A|-----------------------------|---------------------------------|
E|-----------------------------|---------------------------------|

[Primeira Parte]

G                   C
  Caminhando para Jerusalém
G                            C
 O Pai o conduzia sempre a algum lugar
G               C                       D       D4  D  D2  D
E sob o pó da estrada sempre alguém  a mendigar
G                       C
 Com suor no rosto e os pés cansados
G                        C
Olhar no horizonte mas sem tropeçar
G                       C                      D         D4  D  D2  D
Com sede de pregar que o amor tudo pode, tudo pode mudar

[Refrão]

 Bm                Em
 Ele orou , muita gente curou
 Bm               D
 Ele falou, só o pobre ouviu
 Bm                  Em
 Quando caminhou também conheceu
         Am7         D
 O que o Pai por amor concebeu
Bm                 Em
 Ele ouviu, meu problema escutou
Bm                 D
 Quando caiu, por amor levantou
Bm                           Em
 Se hoje estou aqui é porque Ele chamou
      Am7    D                         G
Foi assim      que ele me conquistou

[Tab - Solo]

E|------7-7-7-7--8-8--5--3-3-3-|-----7-7-7-7---7-7--5-5---12-10--|
B|------8-8-8-8--7-7--7--5-5-5-|-----8-8-8-8---8-8--7-7---13-12--|
G|-5/7-------------------------|-5/7-----------------------------|
D|-----------------------------|---------------------------------| (2x)
A|-----------------------------|---------------------------------|
E|-----------------------------|---------------------------------| 

[Segunda Parte]

G                   C
 Por onde passava ficavam a falar
G                         C
 "Quem lhe deu poder para perdoar?"
G                     C               D      D4  D  D2  D
 E por misericórdia então eu possa recomeçar
G                   C
 Esperando Pedro à beira mar
G                      C
 Em Seu coração queria perdoar
G                    C              D       D4  D  D2  D
 Amar é condição para que eu possa caminhar

[Refrão]

 Bm                Em
 Ele orou , muita gente curou
 Bm               D
 Ele falou, só o pobre ouviu
 Bm                  Em
 Quando caminhou também conheceu
         Am7         D
 O que o Pai por amor concebeu
Bm                 Em
 Ele ouviu, meu problema escutou
Bm                 D
 Quando caiu, por amor levantou
Bm                           Em
 Se hoje estou aqui é porque Ele chamou
      Am7    D                         G
Foi assim      que ele me conquistou
00:00 / 00:00
Otros videos de esta canción
Repetir
Otros videos de esta canción
Composición de Dunga
Colaboración y revisión:
  • Joao rodolfo
  • Fernando Oliveira
  • Alan Pereira
106 exhibiciones
    • ½ Tono
    • A
    • Bb
    • B
    • C
    • Db
    • D
    • Eb
    • E
    • F
    • F#
    • G
    • Ab
  • Agregar a la lista
    00:00 / 00:00
    OK