Cifra Club

O Meu Lugar É o Céu

Dunga

Cifrado: Principal (guitarra y guitarra eléctrica)
tono: Em
[Intro] Em  D  C 
        Em  D  C  

E|---------------------------------------------------|
B|---------------------------------------------------|
G|-----------------------------4-5-4-2-0-------------|
D|-2-2-4-5-4-----4-5-4-----4-5----------4-2-0--------|
A|-----------5-5-------3-3---------------------------|
E|---------------------------------------------------|

E|---------------------------------------------------|
B|---------------------------------------------------|
G|---------------------------------------------------|
D|-2-2-4-5-4-----4-5-4-----4-5-5---------------------|
A|-----------5-5-------3-3---------------------------|
E|---------------------------------------------------|

                  G G9 G4 G G9 G
O meu lugar é o céu
                     D  D9 D D4 D D9 D
E lá que eu quero morar
                 Em  D C9
O meu lugar é o céu
                     Cm6       
É lá que eu quero morar
                 G  G9 G4 G G9 G
O meu lugar é o céu
                     D  D9 D D4 D D9 D
É lá que eu quero morar
                 Em D C9
O meu lugar é o céu
                     G  D/F#
É lá que eu quero morar

   Em
Eu sei  não vale a pena
       D
Tanta grana, poder, fama
      C9
Pois isso tudo aqui vou deixar
   Em                          D
E sei que lá no céu só chega aquele que na terra
       C9
Seus bens soube compartilhar
     Em                   D
Por isso todo dia, dia-a-dia, a cada hora
    C9
Eu sei com Deus eu posso contar
     Em                      D
E a cada passo certo que eu der aqui na terra
      C9
Mais perto Dele eu vou ficar

                 G  G9 G4 G G9 G
O meu lugar é o céu
                     D  D9 D D4 D9 D
E lá que eu quero morar
                 Em  D C9
O meu lugar é o céu
                     Cm6       
É lá que eu quero morar
                 G  G9 G4 G G9 G
O meu lugar é o céu
                     D  D9 D D4 D9 D
É lá que eu quero morar
                 Em  D C9
O meu lugar é o céu
                     G  D/F#
É lá que eu quero morar

   Em
Eu sei  não vale a pena
       D
Tanta grana, poder, fama
      C9
Pois isso tudo aqui vou deixar
   Em                          D
E sei que lá no céu só chega aquele que na terra
       C9
Seus bens soube compartilhar
     Em                   D
Por isso todo dia, dia-a-dia, a cada hora
    C9
Eu sei com Deus eu posso contar
     Em                      D
E a cada passo certo que eu der aqui na terra
      C9
Mais perto Dele eu vou ficar

( Em  D  C )
( Em  D  C )

E|-----------------------------------------------------|
B|-----------------------------------------------------|
G|----------------------------4-5-4-2-0----------------|
D|-2-2-4-5-4-----4-5-4-----4-5---------4-2-0-----------|
A|-----------5-5-------3-3-----------------------------|
E|-----------------------------------------------------|

E|-----------------------------------------------------|
B|-----------------------------------------------------|
G|------------------------4-5-4------------------------|
D|-2-2-4-5-4-----4-5-4---------5-----------------------|
A|-----------5-5-------3-3-----------------------------|
E|-----------------------------------------------------|

Am                      D     Am                G
Buscar, bater, saber pedir... e até mesmo suplicar
Am              D
Eu tenho um endereço
    G         F 
No céu vou morar
    G         F      C
Eu tenho um lugar

                     Am    G/B                     C9   D  
É lá que eu quero moraaaaar, é la que eu quero moraaaaar
                     Am    G/B                     C9   D (G)
É lá que eu quero moraaaaar, é lá que eu quero moraaaaar
00:00 / 00:00
Otros videos de esta canción
Repetir
Otros videos de esta canción
Composición de Dunga
1.146 exhibiciones
    • ½ Tono
    • Am
    • Bbm
    • Bm
    • Cm
    • C#m
    • Dm
    • Ebm
    • Em
    • Fm
    • F#m
    • Gm
    • G#m
  • Agregar a la lista
    00:00 / 00:00
    OK