Cifra Club

Realiza o Milagre

Dunga

Cifrado: Principal (guitarra y guitarra eléctrica)
tono: F
Dm          C                  Bb
Eu sei que Tu és o Deus do impossível
Dm          C              Bb
Eu sei que Tu és o Deus de milagres (2x)
F             C
Tu que ouves a nossa oração
Gm               Dm
Tu que escutas o nosso clamor
F                 C
Tu que sondas nosso coração
Gm              Bb                 C
Tu que sabes do que precisamos Senhor
                     F      C
Realiza o milagre em mim Jesus
                      Dm      Bb
Realiza o milagre em mim, Senhor
         F                   C            Dm        Bb
Eu necessito da tua intervenção na minha vida.

Solo 2x:

E|--------------------------|
B|--5-6-5-------------------|
G|--------5---7-5-----------|
D|----------7------7-5------|
A|--------------------------|
E|--------------------------|

E|--------------------------|
B|--5-6-5-------------------|
G|--------5---7-5-----------|
D|----------7------7-3------|
A|--------------------------|
E|--------------------------|

E|--------------------------|
B|--5-6-5-------------------|
G|--------5---7-5-----------|
D|----------7------7-5------|
A|--------------------------|
E|--------------------------|

E|--------------------------|
B|--------------------------|
G|--------------------------|
D|--3-5-5/7--7-7-7/8--7-5-3-|
A|--------------------------|
E|--------------------------|
00:00 / 00:00
Otros videos de esta canción
Repetir
Otros videos de esta canción
Composición de Emanuel Stênio
Colaboración y revisión:
468 exhibiciones
    • ½ Tono
    • A
    • Bb
    • B
    • C
    • Db
    • D
    • Eb
    • E
    • F
    • F#
    • G
    • Ab
  • Agregar a la lista
    00:00 / 00:00
    OK