Cifra Club

Noite

Dust N' Bones

Cifrado: Principal (guitarra y guitarra eléctrica)
Selo Cifra Club: esta cifra foi revisada para atender aos critérios oficiais da nossa Equipe de Qualidade.
tono: G
Letra: Slash Xandão
Musica: Slash Xandão e Johll Axl

Intro:

    D
      Já...    é noite    Estou só...    baby
E |---2------------------2---------------------| 
B |---3--------3---------3---------------3-----| 
G |---2-----2------------2------------2--------|
D |---0--0---------------0---------0-----------| 
A |--------------------------------------------| 
E |--------------------------------------------|

Em                                     G
  Em minha frente eu vejo apenas um papel
Em                                       C 
  E quando fecho os olhos eu sinto seus lábios tocando no meu

G                               Em
Sonho que você esta perto de mim
Mas é tudo mentira
E daí!
Am                       C
  Queria tanto ter você aqui.

Solo: G Em G Em

C
 Mas quando abro os meus olhos
G                            Am
 Penso que tudo isso poderia ser
C
Apenas realidade...

Em                                   G 
 O que eu sinto por você, não mentira não!
Em                                C
 Você não acredita nas coisas que falo

G                               Em
Sonho que você esta perto de mim
Mas é tudo mentira
E daí!
Am                       C
  Queria tanto ter você aqui.

Guitar Solo:  

                                   2x                                       
 G                Em7            Am             D                               
E |--------3-3------------0-0------------0-0------------2-2------| 
B |------0-----0--------0-----0--------1-----1--------3-----3----|
G |----0---------0----0---------0----2---------2----2---------2--|
D |-----------------------------------------------0--------------| 
A |------------------2-------------0-----------------------------| 
E |--3-----------------------------------------------------------|

    G                               Em    G                         C
     As noites são claras sem você aqui    Não consegui mais viver assim
E |-3-------------------------------------3------------------------------| 
B |-3-------------------------------------3-------------------------1----| 
G |-0--------------------------------0----0-------------------------0----|
D |-0--------------------------------2----0-------------------------2----| 
A |-2--------------------------------2----2-------------------------3----| 
E |-3--------------------------------0----3-------------------------0----|


Noite

D
Já é noite
D   
Estou só...baby


Em                                     G
  Em minha frente eu vejo apenas um papel
Em                                       C 
  E quando fecho os olhos eu sinto seus lábios tocando no meu

G                               Em
Sonho que você esta perto de mim
Mas é tudo mentira
E daí!
Am                       C
  Queria tanto ter você aqui.

Solo: G Em G Em

C
 Mas quando abro os meus olhos
G                            Am
 Penso que tudo isso poderia ser
C
Apenas realidade...

Em                                   G
 O que eu sinto por você, não mentira não!
Em                                C
 Você não acredita nas coisas que falo

G                               Em
Sonho que você esta perto de mim
Mas é tudo mentira
E daí!
Am                       C
  Queria tanto ter você aqui.

Solo: G Em7 Am D G Em7 Am D

G                               Em    
 As noites são claras sem você aqui    
G                         C
 Não consegui mais viver assim
Otros videos de esta canción
    2.418 exhibiciones
      • ½ Tono
      • A
      • Bb
      • B
      • C
      • Db
      • D
      • Eb
      • E
      • F
      • F#
      • G
      • Ab
    • Agregar a la lista

    Afinación de cifrado

    Afinador online

      OK