Cifra Club

Ashala Rock

The Early November

Chords: Principal (acoustic and electric guitars)
tone: F#
Tabbed by; Andrew (*)

Intro
eb|-------------------------|
Bb|-------------------------|
Gb|--------7--7-7----7------|
Db|--0~~~~-5--7-7----0~~-x4-|
Ab|--0~~~~-5--5-7----0~~----|
Db|--0~~~~-5--x-7p---0~~----|

Verse
eb|------------------------------------------------|
Bb|------------------------------------------------|
Gb|--------7-7-7-7--------------11/12-12-12-11-11--|
Db|--0-0-0-0-0-0-0-5-5-5-5-5-x4-x-/x--x--x--x--x---|
Ab|--0-0-0-0-0-0-0-5-5-5-5-5----9-/10-10-10-9--9---|
Db|--0-0-0-0-0-0-0-5-5-5-5-5-----------------------|
Palm Mute...................

Chorus
eb|-------------------------------------------|
Bb|-------------------------------------------|
Gb|----------------------------7---~-7-7-7-7--|
Db|-7-7-7-7-7-5-5-5-5-5-5--x4--0~~---x-x-x-x--|
Ab|-7-7-7-7-7-5-5-5-5-5-5------0~~---5-5-5-5--|
Db|-7-7-7-7-7-5-5-5-5-5-5------0~~------------|

Bridge
eb|----------------------------------------------------------|
Bb|----------------------------------------------------------|
Gb|-7------7-----7------7------------------------------------|
Db|-0~~----0~~---0~~----0~~--7--5--4--0----x4--7--5--0~~-----|
Ab|-0~~----0~~---0~~----0~~--7--5--5--0--------7--5--0~~-----|
Db|-0~~----0~~---0~~----0~~--7--5--4--0--------7--5--0~~-----|
00:00 / 00:00
Other videos of this song
Repeat
Other videos of this song
Composed by Arthur Ace Enders
14 views
    • ½ Tone
    • A
    • Bb
    • B
    • C
    • Db
    • D
    • Eb
    • E
    • F
    • F#
    • G
    • Ab
  • Add to list
    00:00 / 00:00
    OK