Cifra Club

Aprenda

Boogie Wonderland

Earth, Wind And Fire

Tab de bajo: Principal
(intro)
G------------------------------|
D------------------------------|
A------------0-0-3-4-5x--------|
E------------------------------|

(riff 1)
G-----------------------------------------------------2--2----6-6-7-|
D------------------------------------5-5-3-5--0-3-5-----------------|
A---5-5-3-5---0-3-4--5-5-3-5--0-3-4---------------------------------|
E-------------------------------------------------------------------|

(riff 2)
G----5--5--5--5-------------7--7----------------|
D-----------------7--7------------5--5--5--5----|
A--3--3--3--3------------5--5-------------------|
E---------------5--5-----------3--3--3--3-------|

(riff 3)
G----5--5--5--5----------7--7-------------5--5---9--9----------7--7--7--7-|
D----------------7--7------------5--5------------------7--7---------------|
A--3--3--3--3-----------5--5------------3--3---7--7---------5--5--5--5----|
E---------------5--5-----------3--3------------------5--5-----------------|

G---------------------------------------------------------------------|
D------5--5--5--5-----7--7--7-----------------------------------------|
A------------------------------0-0-0----0-0---------------------------|
E----3--3--3--3-----5--5--5--5~---------------------------------------|
Composição de Allen Wills / Jon Lind
Colaboración y revision:
  • Jefferson Sousa
515 reproducciones

0 comentarios

Ver todos os comentários

¿Conseguiste tocar?

0 Tocaram 0 Ainda não

Grave um vídeo tocando Boogie Wonderland e nos envie!

00:00 / 00:00
outros vídeos desta música
repetir qualidade Automático
Outros vídeos desta música
00:00 / 00:00
Automático
OK