Cifra Club

Meisterwerk

Echt

Cifrado: Principal (guitarra y guitarra eléctrica)
Selo Cifra Club: esta cifra foi revisada para atender aos critérios oficiais da nossa Equipe de Qualidade.
tono: D
Intro/Verse:

E|-0--0--0--0--|---------------|-------0---|-------0--|
B|-5--5--5--5\-|-1h3-3-0-1-0---|-----0---0-|-----0----|
G|-------------|-------------0-|---0-------|---1------|
D|-------------|---------------|-2---------|-2--------|
A|-------------|---------------|-----------|----------|
E|-------------|---------------|-----------|----------|


Pre-Chorus:

E|-------1-0-----|-------0----|--------------0-|-------------|
B|-----1----3-0--|-----0---0--|------------1---|-------1-0---|
G|---2-----------|---1--------|-------0--------|-----0-----0-|
D|-3-------------|-2----------|-----2---2------|---0---------|
A|---------------|------------|-2-3------------|-2-----------|
E|---------------|------------|----------------|-------------|


Chorus:

E|-0--0-0--3-3-x-|---------------|-2-2----------|-1-1-x-x-3-3-|
B|-2--2-2--3-3-x-|-7-7^v-7^v-7-0-|-3-3----------|-1-1-x-x-3-3-|
G|-2--2-2--4-4-x-|-7-7^v-7^v-7-0-|-4-4--2-0-----|-2-2-x-x-4-4-|
D|-2--2-2--5-5-x-|-7-7---7---7-0-|-4-4------2-0-|-3-3-x-x-5-5-|
A|-0--0-0--5-5-x-|-5-5---5---5-0-|-2-2----------|-3-3-x-x-5-5-|
E|---------3-3-x-|---------------|--------------|-1-1-x-x-3-3-|
Otros videos de esta canción
      • ½ Tono
      • A
      • Bb
      • B
      • C
      • Db
      • D
      • Eb
      • E
      • F
      • F#
      • G
      • Ab
    • Agregar a la lista

    Afinación de cifrado

    Afinador online

      OK