Cifra Club

Nowhere Now

Econoline Crush

Cifrado: Versão 2 (guitarra y guitarra eléctrica)
Selo Cifra Club: esta cifra foi revisada para atender aos critérios oficiais da nossa Equipe de Qualidade.
tono: Dm
Main Riff / Verse (dist)
E|---------3--------3--------3---------------|
B|---------3--------3--------3---------------|
G|-------------------------------------------|
D|--22-222---22-222---22-222---2222----------|
A|--22-222---22-222---22-222---2222----------|
E|--00-000---00-000---00-000---0000--5-6-5-3-|
PM -- ---   -- ---   -- ---   ----

Prechorus (dist)
E|----------------------------|
B|----------------------------|
G|----------------------------|
D|-----7----5----8----7----5~-|
A|-----7----5----8----7----5~-|
E|--00-5-00-3-00-6-00-5-00-3~-|
PM --   --   --   --   --

verse

prechorus

Chorus (dist)
E|------------|
B|------------|
G|------------|
D|--7-10---2--|
A|--7-10---2--|
E|--5-8----0--|
Otros videos de esta canción
    0 exhibiciones
      • ½ Tono
      • Am
      • Bbm
      • Bm
      • Cm
      • C#m
      • Dm
      • Ebm
      • Em
      • Fm
      • F#m
      • Gm
      • G#m
    • Agregar a la lista

    Afinação da cifra

    Afinador online

      Ops (: Contenido disponible solo en portugués.
      OK