Cifra Club

Acurrucar

Ed Maverick

Cifrado: Principal (guitarra y guitarra eléctrica)
Selo Cifra Club: esta cifra foi revisada para atender aos critérios oficiais da nossa Equipe de Qualidade.
tono: Ab (forma dos acordes no tom de G) Capotraste na 1ª casa
[Intro] G  G/F#  Em  
        G  G/F#  Em

[Tab - Intro]

E|---------------------------------------|
B|---0---0---0---0-----0---0---0---0-----|
G|---0---0---0---0-----0---0---0---0-----|
D|---------------------------------------|
A|---------------------------------------|
E|-3---3---3---3-----2---2---2---2-------|

E|---------------------------------------|
B|---0-----0---0-----0---0---0---0-------|
G|---0-----0---0-----0---0---0---0-------|
D|---------------------------------------|
A|-----0h2-------0h2-------2-------------|
E|-0---------0---------0-------0----0-2--|

E|---------------------------------------|
B|---0-----0---0-----0-----0---0---0---0-|
G|---0-----0---0-----0-----0---0---0---0-|
D|---------------------------------------|
A|-----0h2-------0h2---------0-----------|
E|-3---------3-----------2-------2---2---|

E|---------------------------------------|
B|---0-----0---0-----0---0-----0---------|
G|---0-----0---0-----0---0-----0---------|
D|---------------------------------------|
A|-----0h2-------0h2-------0h2-----------|
E|-0---------0---------0---------0---0-2-|

[Primeira Parte]

   G
¿Qué esperas de mí?
   G/F#                 Em
Quiero ver qué piensas tú
 G
Me dijiste ayer
  G/F#            Em
"Wey cero romántico"
 G
Tienes que entender
 G/F#              Em
No soy un wey básico

[Segunda Parte]

C                            D7
Aunque no te culpo hay veces en que
                      G
Ni siquiera yo me entiendo
   C                    D7
Quiero que sigamos aturrándonos la vida
       G
De recuerdos

( C  D7  G  C  D7  G )

[Terceira Parte]

   C                          D7      
Quiero que me digas que me quieres y
                   G
Que me vas a extrañar
 C                       D7              
Mames, no me mires a los ojos que
                 G
Me vas a hacer llorar
 C                          D7                      
Dime que esta no será la última
                      G  G/F#  Em
Vez que te voy a abrazar
     C                      D7                     
Quisiera que todo fuera mentira
                     G  
Y de chingazo despertar
     C                      D7                     
Quisiera que todo fuera mentira
                     G 
Y de chingazo despertar

[Refrão]

        G/F#         Em       
Un día más, una vez más
         C             D7         G
En tus brazos yo me quiero acurrucar

        G/F#         Em       
Un día más, una vez más
         C             D7         G
En tus brazos yo me quiero acurrucar

        G/F#         Em       
Un día más, una vez más
         C             D7         G
En tus brazos yo me quiero acurrucar

        G/F#         Em       
Un día más, una vez más
         C             D7         G
En tus brazos yo me quiero acurrucar

[Final] G  G/F#  Em  C  D7
        G  G/F#  Em  C  D7
        G  G/F#  Em  C  D7
        G  G/F#  Em  C  D7
        G  G/F#  Em  C  D7  G6
Otros videos de esta canción
    132.844 exhibiciones
    • Simplificar cifrado
      • ½ Tono
      • A
      • Bb
      • B
      • C
      • Db
      • D
      • Eb
      • E
      • F
      • F#
      • G
      • Ab
    • Agregar a la lista

    Afinação da cifra

    Afinador online

      Ops (: Contenido disponible solo en portugués.
      OK