Cifra Club

Ropa De Bazar

Ed Maverick

Cifrado: Principal (guitarra y guitarra eléctrica)
Selo Cifra Club: esta cifra foi revisada para atender aos critérios oficiais da nossa Equipe de Qualidade.
tono: Bb (con acordes en la forma de A) Capotraste en 1ª casa
[Primeira Parte]

              Bm7       A
Vámonos de aquí, acompáñame
          Bm7
Yo te cuidare
             A
Como en las pedas y todo lo demás
 Bm7
Corre y no vuelvas
                           A
Si quieres te ayudo a escapar-ar
 Bm7                                   A
Corre, te sigo, vámonos a cualquier lugar

[Refrão]

 D7M                      A
Vámonos de viaje y no volver
                       D7M
Llegar a un hotel a coger
                       A
No importa, vamos a estar bien

 D7M                      A
Vamos a dejar nuestra ciudad
                      D7M
Comprarnos ropa de bazar
                    A
No importa todo lo Demás

[Segunda Parte]

D7M
Ay wey, que felicidad de verte
         A
Y luego tus labios besar (bien fuerte)
D7M
Ay wey, que felicidad de verte
         A
Y luego tus pecas contar

D7M
Ay que me pongo a pensar que por fin
         A
Estamos solos tu y yo ya (ahuevo)
D7M
Ay wey, que felicidad de verte
     A
Manejar el carro de tu papá

[Final] Bm7  A  Bm7  A
        Bm7  A  Bm7  A
        Bm7  A  Bm7  

[Tab - Final]

Parte 1 de 4
E|------------------------------------------|
B|------------------------------------------|
G|------------------------------------------|
D|-2/4--2-0---------------------------------| (2x)
A|-----------4--2------7\--4----------------|
E|------------------------------------------|

Parte 2 de 4
E|------------------------------------------|
B|------------------------------------------|
G|------------------------------------------|
D|------------------------------------------|
A|-0--1-2----0-2----4/--7\--4----0----------|
E|------------------------------------------|

Parte 3 de 4
E|------------------------------------------|
B|------------------------------------------|
G|------------------------------------------|
D|------------------------------------------|
A|-0--1-2--0-2--4-4/5--5-5/7--5-4-----------|
E|------------------------------------------|

Parte 4 de 4
E|------------------------------------------|
B|------------------------------------------|
G|----------------------2-------------------|
D|-4---2-4---2-4---2-4-----4--2-------------|
A|----------------------------------0--1--2-|
E|------------------------------------------|
Otros videos de esta canción
    55.837 exhibiciones
      • ½ Tono
      • A
      • Bb
      • B
      • C
      • Db
      • D
      • Eb
      • E
      • F
      • F#
      • G
      • Ab
    • Agregar a la lista

    Afinación de cifrado

    Afinador online

      OK