Cifra Club

Tommy Boy's Big Mistake

Ed Motta

Cifrado: Principal (guitarra y guitarra eléctrica)
Acompaña nuestras novedades de Cifra Club en español.
¡Sigue nuestro perfil en Instagram!
tono: A
Intro: E - A4 - riff (4x)

*Riff
e|---------------
B|---------------
G|---------------
D|---------------
A|-5-4-----------
E|------7-5-4-5-7

E
Go get Jeanie
     A4  (riff)
Start the engine
It's a good night
   E    A4   (riff)
That I know      Yeah!

E
Are you drunk
A4
On my talking
Do you need me
         E  A4
Do I know

Uh no no

C    G     D  D4 D
You don't lie
C G  D   D4  D
Ever lie
C   G     D    D4 D
You been lying
      C   G             D
Gotta go now Take a ride

E A4 (riff) 4x
(Let it go Let it go)
E  
  Tommy told
A4 (riff)
Tommy showed
Didn't mean to
          E     A4 (riff)
Now I know        yeahh

E
Won't take long
   A4
I ain't strong
            (riff)
But it's a something
               E  A4
Can't control

C    G    D   D4  D
You don't lie
C G  D   D4  D
Ever lie
C   G    D    D4 D
You been lying
      C   G             D
Gotta go now Take a ride

Solo - base: E A4 riff (4x)
Solo (guitarra 'beliscada’, não use palheta!)
e|------------------------------------------------------------------------------
B|----------------------------------------------------------/9-5------9-----/8--
G|------------------------------9—9/7—7/6--0-2-0---------/6-------/7-(7)-/6-(6)-
D|------------------------------------------------0-2-0-------------------------
A|---7-7/9-7~~~-10-12-12(13)-10-------------------------------------------------
E|-7----------------------------------------------------------------------------
         
C    G    D  D4 D
You don't lie
C G  D  D4 D
Ever lie
C   G    D    D4 D
You be-be- be-be- been lying
      C   G       D
Gotta go now Take a ride

Take a ride

E A4 - riff (6x) E A4
Solo final:
   lick1        lick2      lick3           lick4
e|---7--9-----|----------|----16-14-12~~-|12-14-12------||
B|------------|----------|---------------|---------14---||
G|0--7--9--6~~|----------|-/16-----------|-------------0||
D|0-----------|-2-h4p-2--|---------------|-------------0||
A|------------|--------4-|---------------|--------------||
E|------------|----------|---------------|--------------||
Repete 3 vezes a transcrição acima
No final, termina com o lick2.
Composición de Ed Motta / Robert Gallagher
Colaboración y revisión:
  • Marcelo Donati
22 vistas
    • ½ Tono
    • A
    • Bb
    • B
    • C
    • Db
    • D
    • Eb
    • E
    • F
    • F#
    • G
    • Ab
  • Agregar a la lista

    0 comentarios

    Ver todos los comentarios

    ¿Lograste tocar?

    0 Tocaron 0 Aún no

    ¡Graba un video tocando Tommy Boy's Big Mistake y envíanoslo!

    00:00 / 00:00
    Outros vídeos desta música
    Repetir Calidad Automático
    Outros vídeos desta música
    00:00 / 00:00
    Automático
    OK