Cifra Club

Bad Habits

Ed Sheeran

Chords: Principal (acoustic and electric guitars)
tone: Bm
[Intro] Bm  D7M  G  A
        Bm  D7M  G  A

[Tab - Dedilhado]

   Bm               D7M
E|-----------2----------------2-------------|
B|---3-----3-----2----2-----2-----0---------|
G|-----4----------------2-------------------|
D|------------------0-----0-----------------|
A|-2-----2-----2----------------------------|
E|------------------------------2-----------|

   G                        A 
E|------------------------------------------|
B|---0-----0-2---0---0------0-2---3---------|
G|-----0---------------0--------------------|
D|------------------------------------------|
A|------------------------------------------|
E|-3-----3-----3---3-----3--0---0-----------|

   Bm               D7M
E|-----------2----------------2-------------|
B|---3-----3-----2----2-----2-----0---------|
G|-----4----------------2-------------------|
D|------------------0-----0-----------------|
A|-2-----2-----2----------------------------|
E|------------------------------2-----------|

   G                        A 
E|------------------------------------------|
B|---0-----0-2---0---0------0-2---3---------|
G|-----0---------------0--------------------|
D|------------------------------------------|
A|------------------------------------------|
E|-3-----3-----3---3-----3--0---0-----------|

[Primeira Parte] 

Bm
Every time you come around
D7M                      G    A
    You know I can’t say   no
Bm
Every time the sun goes down
D7M                 G      A
    I let you take control
Bm
I can feel the paradise
D7M                 G        A
    Before my world implodes
       Bm        D7M
And tonight had something wonderful

[Refrão] 

                       Bm
My bad habits lead to late
                D
Nights ending alone
       D/F#             G
Conversations with a stranger

I barely know
           A               Bm
Swearing this will be the last
                 D
But it probably won’t
          D/F#            Em
I’ve got nothing left to lose
            G
Or use, or do

        A              Bm
My bad habits lead to wide eyes
             D7M
Stare into space
                       G
And I know I lose control

Of the things that I say
       A             Bm
I was looking for a way out
               D7M
Now I can’t escape
                        Em
Nothing happens after two
                  G
It’s true, it’s true

        A              Bm  D7M  G
My bad habits lead to you
        A              Bm  D7M  Em
My bad habits lead to you
G        A               Bm
  My bad habits lead to you

[Segunda Parte] 

Bm
Every pure intention ends
D7M                     G       A
    When the good times   start
 Bm
Falling over everything
D7M
    To reach the first
      Em/G       A
Times      spark
  Bm
Started under neon lights
D7M              G       A
    Then it all got dark
  Bm     D          D/F#   Em
I only know how to go too far

[Refrão] 

                       Bm
My bad habits lead to late
                D
Nights ending alone
       D/F#             G  
Conversations with a stranger

I barely know
           A               Bm
Swearing this will be the last
                 D
But it probably won’t
          D/F#            Em
I’ve got nothing left to lose
            G
Or use, or do

        A              Bm
My bad habits lead to wide eyes
             D7M
Stare into space
                       G
And I know I lose control

Of the things that I say
       A             Bm
I was looking for a way out
               D7M
Now I can’t escape
                        Em
Nothing happens after two
                  G
It’s true, it’s true

        A              Bm  D7M  G
My bad habits lead to you
        A              Bm
My bad habits lead to you

( D7M  Em  G  A )

[Ponte] 

 Bm          D    D/F#  G    A
We took the long way   round
     Bm             D   D/F#  Em7
And burned til the fun ran    out

[Refrão Final] 

    G         A              Bm
Now   my bad habits lead to late
                D
Nights ending alone
                        G  
Conversations with a stranger

I barely know
           A               Bm
Swearing this will be the last
                 D
But it probably won’t
                          Em
I’ve got nothing left to lose
            G
Or use, or do

                       Bm
My bad habits lead to wide eyes
             D7M
Stare into space
                       G
And I know I lose control

Of the things that I say
       A             Bm
I was looking for a way out
               D7M
Now I can’t escape
                        Em
Nothing happens after two
                  G
It’s true, it’s true

        A              Bm  D7M  G
My bad habits lead to you
        A              Bm  D7M  Em
My bad habits lead to you
G         A
  My bad habits lead to you
00:00 / 00:00
Other videos of this song
Repeat
Other videos of this song
Composed by Ed Sheeran / Fred Gibson / Johnny McDaid
Collaboration and Review:
  • Victor Alves
  • Getúlio Vasconcelos
  • Fábio Morato
10.290 views
  • Simplify chords
    • ½ Tone
    • Am
    • Bbm
    • Bm
    • Cm
    • C#m
    • Dm
    • Ebm
    • Em
    • Fm
    • F#m
    • Gm
    • G#m
  • Add to list
    00:00 / 00:00
    OK