Enviar cifraEntrar

Bloodstream (feat. Rudimental)

Ed Sheeran

Acordes: Principal
reproducciones 3.495
Tono: G# (con acordes en la forma de E) Capo en 4ª casa
(A 3ª corda - corda sol, deve ser afinada em mi, ou seja, um tom e meio mais grave)

Intro: B4 G7M(6) A9 E7

Intro e Primeira Parte:

   B4
E|------------------------------------------|
B|------------------------------------------|
G|-----0-----0-----------0-----0------------|
D|---4-----4-----4-----4-----4-----4--------|
A|-2-----2-----2-----2-----2-----2----------|
E|------------------------------------------|


   G7M(6)
E|------------------------------------------|
B|------------------------------------------|
G|-----0-----0-----------0-----0------------|
D|---0-----0-----0-----0-----0-----0--------|
A|------------------------------------------|
E|-3-----3-----3-----3-----3-----3----------|


   A9
E|------------------------------------------|
B|------------------------------------------|
G|-----0-----0-----------0-----0------------|
D|---2-----2-----2-----2-----2-----2--------|
A|-0-----0-----0-----0-----0-----0----------|
E|------------------------------------------|


   E7
E|------------------------------------------|
B|------------------------------------------|
G|-----0-----0-----------0-----0------------|
D|---0-----0-----0-----0-----0-----0--------|
A|------------------------------------------|
E|-0-----0-----0-----0-----0-----0----------|


Primeira Parte:
B4
   I've been spinning out of time
G7M(6)
       Couple women by my side
A9
   I got sinning on my mind
E7
   Sipping on red wine

B4
   I've been sitting here for ages
G7M(6)
       Ripping out the pages
A9
   How'd I get so faded 
E7
   How'd I get so faded

B4                          G7M(6)
Oh, no, no, don't leave me lonely now
        A9                       E7
If you loved me how'd you never learn
B4                            G7M(6)
   Oh, colour crimson in my eyes
                          A9  E7
One or two could free my mind

Pré-refrão:
G7M(6)          A9
       This is how it ends
B4
   I feel the chemicals
 G7M(6)    A9             E7
Burn in my    bloodstream
G7M(6)        A9
       Fading out again
B4
   I feel the chemicals 
 G7M(6)    A9             E7
Burn in my    bloodstream

Pré-refrão:

  G7M(6)        A9
E|------------------------------------------|
B|---0-------0----0-------0-----------------|
G|-------0------------0---------------------|
D|---0-----0------2-----2-------------------|
A|--------------0---0-----------------------|
E|-3---3------------------------------------|


   B4
E|------------------------------------------|
B|---0-------0----0-------0-----------------|
G|-------0------------0---------------------|
D|---4-----4------4-----4-------------------|
A|-2---2--------2---2-----------------------|
E|------------------------------------------|


  G7M(6)        A9
E|------------------------------------------|
B|---0-------0----0-------0-----------------|
G|-------0------------0---------------------|
D|---0-----0------2-----2-------------------|
A|--------------0---0-----------------------|
E|-3---3------------------------------------|


  E7
E|------------------------------------------|
B|---0-------0----0-------0-----------------|
G|-------0------------0---------------------|
D|---0-----0------0-----0-------------------|
A|------------------------------------------|
E|-0---0--------0---0-----------------------|


Refrão:
So tell me when it kicks in
B4     G7M(6)      A9     E7
   Hum..      Hum..   Hum..
                      
Well, tell me when it kicks in
B4     G7M(6)      A9     E7
   Hum..      Hum..   Hum..

Segunda Parte:
B4
   I've been looking for a lover
G7M(6)
       Thought I'd find her in a bottle
A9
   God, make me another one
E7
   I'll be feeling this tomorrow
B4
   Lord, forgive me 
                     G7M(6)
For the things I've done
                             A9
I was never meant to hurt no one
And I saw scars upon a
E7
   Broken hearted lover

B4
   Oh, no, no, don't 
          G7M(6)
Leave me lonely now
        A9                   E7
If you loved me how'd you never learn
B4                       G7M(6)
Oh, colour crimson in my eyes
                          A9  E7
One or two could free my mind

Pré-refrão:
G7M(6)          A9
       This is how it ends
B4
   I feel the chemicals
 G7M(6)    A9             E7
Burn in my    bloodstream
G7M(6)        A9
       Fading out again
B4
   I feel the chemicals 
 G7M(6)    A9             E7
Burn in my    bloodstream

Refrão:
So tell me when it kicks in
B4     G7M(6)      A9     E7
   Hum..      Hum..   Hum..
                      
Well, tell me when it kicks in
B4     G7M(6)      A9     E7
   Hum..      Hum..   Hum..

Well, tell me when it kicks in

Terceira Parte:

  G7M(6)        A9
E|------------------------------------------|
B|---0-------0----0-------0-----------------|
G|-------0------------0---------------------|
D|---0-----0------2-----2-------------------|
A|--------------0---0-----------------------|
E|-3---3------------------------------------|


   B4
E|------------------------------------------|
B|---0-------0----0-------0-----------------|
G|-------0------------0---------------------|
D|---4-----4------4-----4-------------------|
A|-2---2--------2---2-----------------------|
E|------------------------------------------|


G7M(6)          A9           B4
       All the voices in my mind
                        G7M(6)
Calling out across the line
         A9           B4
All the voices in my mind
                        G7M(6)
Calling out across the line

         A9           B4
All the voices in my mind
                        G7M(6)
Calling out across the line
         A9           B4
All the voices in my mind
                        G7M(6)
Calling out across the line

         A9           B4
All the voices in my mind
                        G7M(6)
Calling out across the line
         A9           B4
All the voices in my mind
                        G7M(6)
Calling out across the line

Quarta Parte:
 A9                   B4
Tell me when it kicks in
            G7M(6)
And I saw scars upon her
 A9                   B4
Tell me when it kicks in
        G7M(6)
Broken heart

 A9                   B4
Tell me when it kicks in
            G7M(6)
And I saw scars upon her
 A9                   B4
Tell me when it kicks in
        G7M(6)
Broken heart

 A9                   B4
Tell me when it kicks in
            G7M(6)
And I saw scars upon her
 A9                   B4
Tell me when it kicks in
        G7M(6)
Broken heart

 A9                   B4
Tell me when it kicks in
            G7M(6)
And I saw scars upon her
 A9                   B4
Tell me when it kicks in
        G7M(6)
Broken heart

Final:
 A9                   B4
Tell me when it kicks in
            G7M(6)
And I saw scars upon her
 A9                   B4
Tell me when it kicks in
        G7M(6)
Broken heart

 A9                   B4
Tell me when it kicks in
            G7M(6)
And I saw scars upon her
 A9                   B4
Tell me when it kicks in
        
Broken heart
  • 1
  • 2
  • 3
  • 4
  • 5
  • 6
  • 7
  • 8
  • 9
  • 10
  • 11
  • 12
    Acordes para:
      Colaboración y revision:
      • Leandro Sandim
      • Letícia

      0 comentarios

        mostrar mas comentarios

        ¿Conseguiste tocar?

        14tocaron0aún no

        ¡Grave un vídeo tocando Bloodstream (feat. Rudimental) y envie para nosotros!

        00:00 / 00:00
        outros vídeos desta música
        repetirqualidadeautomática
        • automática
        Outro vídeos desta música
          Capítulos
          • Tocando a música
          • Dicas Iniciais / Equipamentos / Afinação
          • Acordes da música
          • Tocando Introdução e Primeira Parte
          • Ensinando Introdução e Primeira Parte
          • Variação Introdução e Primeira Parte
          • Dicas Pré-Refrão
          • Tocando Pré-Refrão
          • Ensinando Pré-Refrão
          • Pré-Refrão - Parte 1 de 4
          • Pré-Refrão - Parte 2 de 4
          • Pré-Refrão - Parte 3 de 4
          • Pré-Refrão - Parte 4 de 4
          • Dicas Refrão
          • Tocando Refrão
          • Ensinando Refrão
          • Dicas Repetição - Terceira Parte
          • Tocando Terceira Parte
          • Ensinando Terceira Parte
          • Dicas Quarta Parte - Final
          • Tocando Quarta Parte - Final
          • Ensinando Quarta Parte - Final
          • Encerramento
          • Ficha técnica
          00:00 / 00:00
          automática
          • automática
          cerrarplay/pause subir/bajar velocidad
            Acordes para:guitarra
            acordes
            cerrar
            OK