Cifra Club

Aprenda

Blow (part. Chris Stapleton & Bruno Mars)

Ed Sheeran

Tablatura: Principal (guitarra)
Tom: Ebm (con acordes en la forma de Em) Afinação: Eb Ab Db Gb Bb Eb
[Intro]

(Riff - 4x)

Parte 1 de 2

E|------------------------------------------|
B|------------------------------------------|
G|------------------------------------------|
D|---------0h2~------------------------0h2~-|
A|------------------------------------------|
E|--0--0-0--------0--0-0-5p3~---0--0-0------|

Parte 2 de 2

E|------------------------------------------|
B|------------------------------------------|
G|------------------------------------------|
D|--------0---------------------------------|
A|--0-1-2---2-1-0---------------------------|
E|-----------------3------------------------|

[Primeira Parte]

Em
   I'm feelin' like a bullet

Jumpin' out a gun
Em
  I'm feelin' like a winner

I feel like the one
Em
  You're doing somethin' to me

You're doing somethin' strange
Em
  Well, jump back, talk to me, woman

You make me wanna make a baby, baby, uh

(Riff)

Parte 2 de 2

E|------------------------------------------|
B|------------------------------------------|
G|------------------------------------------|
D|--------0---------------------------------|
A|--0-1-2---2-1-0---------------------------|
E|-----------------3------------------------|

(Repete 2x)

Parte 1 de 2

E|------------------------------------------|
B|------------------------------------------|
G|------------------------------------------|
D|---------0h2~------------------------0h2~-|
A|------------------------------------------|
E|--0--0-0--------0--0-0-5p3~---0--0-0------|

Parte 2 de 2

E|------------------------------------------|
B|------------------------------------------|
G|------------------------------------------|
D|--------0---------------------------------|
A|--0-1-2---2-1-0---------------------------|
E|-----------------3------------------------|

[Segunda Parte]

Em
  Supernatural woman

Supernatural freak
Em
  Don't know what you're doin'

Got me feelin' weak
    Em
Oh, I wanna call you fever, baby

You can set a fire on me
Em
  Hot damn, pop it like a pistol, mama

You got me down on my knees, begging please

(Riff)

E|------------------------------------------|
B|------------------------------------------|
G|------------------------------------------|
D|--------0---------------------------------|
A|--0-1-2---2-1-0---------------------------|
E|-----------------3------------------------|

[Refrão]

     G5               A5
I'm comin' baby, I'm gunnin' for you, yeah
Em (riff)
  Locked, loaded, shoot my shot tonight
G5                A5
  I'm comin' baby, I'm gunnin' for you
E5                                      
  Pull my trigger, let me blow your mind

( D5  A5 )

(Repete 2x)

Parte 1 de 2

E|------------------------------------------|
B|------------------------------------------|
G|------------------------------------------|
D|---------0h2~------------------------0h2~-|
A|------------------------------------------|
E|--0--0-0--------0--0-0-5p3~---0--0-0------|

Parte 2 de 2

E|------------------------------------------|
B|------------------------------------------|
G|------------------------------------------|
D|--------0---------------------------------|
A|--0-1-2---2-1-0---------------------------|
E|-----------------3------------------------|

[Terceira Parte]

Em
   You red leather rocket

You little foxy queen
Em
   Everybody's watching

Pretty little thing
       Em
Baby, tell me, what's your fantasy

Come closer, let's talk about it
     Em
You want white lines in a limousine

Whipped cream, and everything in between, yeah

(Riff)

E|------------------------------------------|
B|------------------------------------------|
G|------------------------------------------|
D|--------0---------------------------------|
A|--0-1-2---2-1-0---------------------------|
E|-----------------3------------------------|

[Refrão]

     G5               A5
I'm comin' baby, I'm gunnin' for you, yeah
Em (riff)
  Locked, loaded, shoot my shot tonight
G5                A5
  I'm comin' baby, I'm gunnin' for you
E5                                      
  Pull my trigger, let me blow your mind

[Solo]

(Repete 2x)

Parte 1 de 2

E|------------------------------------------|
B|------------------------------------------|
G|------------------------------------------|
D|---------0h2~------------------------0h2~-|
A|------------------------------------------|
E|--0--0-0--------0--0-0-5p3~---0--0-0------|

Parte 2 de 2

E|------------------------------------------|
B|------------------------------------------|
G|------------------------------------------|
D|--------0---------------------------------|
A|--0-1-2---2-1-0---------------------------|
E|-----------------3------------------------|

[Refrão]

     G5               A5
I'm comin' baby, I'm gunnin' for you, yeah
Em (riff)
  Locked, loaded, shoot my shot tonight
G5                A5
  I'm comin' baby, I'm gunnin' for you
E5                                      
  Pull my trigger, let me blow your mind

( D5  A5 )

(Repete 2x)

Parte 1 de 4

E|------------------------------------------|
B|------------------------------------------|
G|------------------------------------------|
D|---------0h2~------------------------0h2~-|
A|------------------------------------------|
E|--0--0-0--------0--0-0-5p3~---0--0-0------|

Parte 2 de 4

E|------------------------------------------|
B|------------------------------------------|
G|------------------------------------------|
D|--------0---------------------------------|
A|--0-1-2---2-1-0---------------------------|
E|-----------------3------------------------|

Parte 1 de 4

E|------------------------------------------|
B|------------------------------------------|
G|------------------------------------------|
D|---------0h2~------------------------0h2~-|
A|------------------------------------------|
E|--0--0-0--------0--0-0-5p3~---0--0-0------|

Parte 3 de 4

E|-----------------------------------------|
B|-----------------------------------------|
G|-----------------------------------------|
D|-------0---------------0-----------------|
A|-0-1-2---2-1-0---0-1-2---2-1-0-----------|
E|---------------3---------------3---------|

Parte 4 de 4

E|------------------------------------------|
B|------------------------------------------|
G|------------------------------------------|
D|--------0-------------2-------------------|
A|--0-1-2---2--1--0-----2-------------------|
E|-------------------3--0-------------------|
Compositor Bard McNamee / Brody Brown / Bruno Mars / Chris Stapleton / Ed Sheeran / Frank Rogers / Greg McKee / J.T. Cure
Colaboración y revision:
  • Lucas Kappaun
327 reproducciones
    • ½ Tom
    • Am
    • Bbm
    • Bm
    • Cm
    • C#m
    • Dm
    • Ebm
    • Em
    • Fm
    • F#m
    • Gm
    • G#m
  • Adicionar à lista

    0 comentarios

    Mostrar mais comentários

    ¿Conseguiste tocar?

    0 Tocaron 0 Ainda não

    Grave um vídeo tocando Blow (part. Chris Stapleton & Bruno Mars) e mande pra gente!

    00:00 / 00:00
    outros vídeos desta música
    repetir qualidade Automático
    Outros vídeos desta música
    00:00 / 00:00
    Automático
    OK