Cifra Club

Firefly

Ed Sheeran

Tablatura: Principal (guitarra)
Tom: E
Intro:
E|-----------------------------------------------|
B|-----------------------------------------------|
G|-----------------------------------------------|
D|-----------------------------------------------|
A|---6-h7-------6-h7/9/11-------6-h7-\2----------|
E|0----------0-----------------0-----------------|

Verse 1:
        E      A     C#m     B
E|------0------5------4------7----------------------------------------------------|
B|------0------5------5------7----------------------------------------------------|
G|------1------6------6------8----------------------------------------------------|
D|------2------7------6------9----------------------------------------------------|
A|------2------7------4------9----------------------------------------------------|
E|------0------5------0------7----------------------------------------------------|

E               A     C#m     B
I fell in love next to you
         E    A       C#m    B
Burning fires in this room
         E
It just fits
A          C#m    B
Light and smooth
         E    B       E
Like my feet in my shoes
E           A     C#m    B
Little one, lie with me
         E    A    C#m    B
Sew you heart to my sleeve
         E
We'll stay quiet 
A     C#m  B
Underneath
          E
shooting stars
B                E
If it helps you sleep

Pre-Hook:
     A
And hold me tight
      C#m
Don't let me breathe
 A
Feeling like
    C#m        B
You won't believe

E
There's a firefly 
A
Loose tonight
C#m
Better catch it
           B
Before it burns this place down
E
And I lie If I 
A
don't feel so right
C#m
But the world looks 
B
better
             E
Through your eyes

Verse 2:
E
Teach my skin 
A         C#m   B
Those new tricks
        E
Warm me up 
A        C#m   B
With your lips
        E
Heart to heart
A     C#m  B
Melt me down
         E
It's too cold
B        E
In this town
E
Close your eyes
A     C#m  B
Lean on me
        E
Face to mouth
A     C#m    B
Lips to cheek
         E
Feeling numb
A   C#m  B
In my feet
            E
You're the one
B
To help me
        E
Get to sleep

     A
And hold me tight
      C#m
Don't let me breathe
 A
Feeling like
    C#m        B
You won't believe

E
There's a firefly 
A
Loose tonight
C#m
Better catch it
           B
Before it burns this place down
E
And I lie If I 
A
don't feel so right
C#m
But the world looks 
B
better
             E
Through your eyes

A
It's only been one night of love
    C#m           B
And maybe that is not enough

A
Hold me tight don't let me breathe
C#m
Feeling like
     B
You won't believe

A
It's only been one night of love
    C#m           B
And maybe that is not enough

A
Hold me tight don't let me breathe
C#m
Feeling like
     B
You won't believe

E
There's a firefly 
A
Loose tonight
C#m
Better catch it
           B
Before it burns this place down
E
And I lie If I 
A
don't feel so right
C#m
But the world looks 
B
better
             E
Through your eyes
reproducciones 674
Acordes para:
    Colaboración y revision:
    • Sabrina ff

    0 comentarios

    mostrar más comentarios

    ¿Conseguiste tocar?

    0 tocaron 1 aún no

    ¡Graba un vídeo tocando Firefly y envianoslo!

    00:00 / 00:00
    outros vídeos desta música
    repetir qualidade Automático
    Outros vídeos desta música
    00:00 / 00:00
    Automático
    OK