Cifra Club

How Would You Feel (Paean)

Ed Sheeran

Cifrado: Principal (guitarra y guitarra eléctrica)
Já pensou em usar uma coleção de roupas do Cifra Club? Responda as perguntas abaixo e nos ajude nessa missão! →
tono: A (con acordes en la forma de G) Capotraste en 2ª casa
[Intro] G  Bm7  C9  G  Bm7  C9

        G            Bm7           C9
E|-----------------------------------------------------------|
B|--------0h3p0----------------------------------------------|
G|---------------------0h2--0--------0-------0--0--0h2p0-----|
D|-----0------------0-------------2-----0h2---------------0--|
A|---------------2-------------3-----------------------------|
E|--3--------------------------------------------------------|

      G            Bm7             C9
E|-----------------------------------------------------------|
B|--------0h3p0----------------------------------------------|
G|---------------------0h2--0--------------------------------|
D|-----0------------0----------------------------------------|
A|---------------2-------------------------------------------|
E|--3--------------------------------------------------------|

G             Bm7        C9
  You are the one, girl
                              
You know that it's true
G             Bm7     C9
 I'm feeling younger
                                       
Every time that I'm alone with you

Bm7                            Em
We were sitting in a parked car
                               A7
Stealing kisses in a front yard
                                   D
We got questions we should not asked

                    G  Bm7  C9 
But how would you feel
                        G  Bm7  C9 
If I told you I loved you
                                    G  Bm7  C9 
It's just something that I want to do
                    Am                D
I'll be taking my time, spending my life
                              G  Bm7  C9 
Falling deeper in love with you
                              G  Bm7  C9 
So tell me that you love me too

G        Bm7   C9
 In the summer 
                             
As the lilacs bloom
G             Bm7               C9
 Love flows deeper than a river
                                        
Every moment that I spend with you

Bm7                                    Em
We were sat upon our best friend's roof
                              A7
I had both of my arms round you
                                   D
Watching the sunrise replace the moon
  
                G  Bm7  C9
How would you feel
                        G  Bm7  C9 
If I told you I loved you
                                    G  Bm7  C9 
It's just something that I want to do
                    Am                D
I'll be taking my time, spending my life
                              G  Bm7  C9 
Falling deeper in love with you
                              G  Bm7  C9 
So tell me that you love me too

( G  Bm7  C9 ) 
( G  Bm7  C9 ) 
( G  Bm7  C9 ) 
( G  Bm7  C9 ) 
 
E|----------------------------------------------------------------|
B|----------------------------------------------------------------|
G|----------14------14--16b18--16--------18r16p14-----------------|
D|--14--16------16---------------------------------16-------------|
A|----------------------------------------------------------------|
E|----------------------------------------------------------------|

E|----------------------------------------------------------------|
B|--------------------------------------17------------------------|
G|----------14------14--------16b18r16------18r16p14---14---------|
D|--14--16------16------------------------------------------------|
A|----------------------------------------------------------------|
E|----------------------------------------------------------------|

E|---------------------------------------------7------------------|
B|--------------------------------------17h19-----17h19--17--17/19|
G|----------14------14--------16b18r16----------------------------|
D|--14--16------16------------------------------------------------|
A|----------------------------------------------------------------|
E|----------------------------------------------------------------|

E|----------------------------------------------------------------|
B|----------------------------------------------------------------|
G|----------14------14--------16b18r16-----16h18r16--14--16--14---|
D|--14--16------16------------------------------------------------|
A|----------------------------------------------------------------|
E|----------------------------------------------------------------|

E|----------------------------------------------------------------|
B|----------------------------------------------------------------|
G|--14p11---------------------------------------------------------|
D|---------11\9/11------------------------------------------------|
A|----------------------------------------------------------------|
E|----------------------------------------------------------------|

Bm7                            Em
We were sitting in a parked car
                               A7
Stealing kisses in a front yard
                                   D
We got questions we shouldn't had asked

                    G  Bm7  C9 
But how would you feel
                        G  Bm7  C9
If I told you I loved you
                                    G  Bm7  C9
It's just something that I want to do
               Am                D
I'm taking my time, spending my life
                              G  Bm7  C9 
Falling deeper in love with you
                              G  Bm7  C9 
So tell me that you love me too
                           G  Bm7  C9 
Tell me that you love me too
                           G  Bm7  C9 
Tell me that you love me too
Composición de Benny Blanco / Ed Sheeran / Johnny McDaid
5.784 vistas
    • ½ Tono
    • A
    • Bb
    • B
    • C
    • Db
    • D
    • Eb
    • E
    • F
    • F#
    • G
    • Ab
  • Agregar a la lista

    0 comentarios

    Ver todos los comentarios

    ¿Lograste tocar?

    23 Tocaron 6 Aún no

    ¡Graba un video tocando How Would You Feel (Paean) y envíanoslo!

    00:00 / 00:00
    Outros vídeos desta música
    Repetir Calidad Automático
    Outros vídeos desta música
    00:00 / 00:00
    Automático
    OK