Cifra Club

Little Things

Ed Sheeran

Cifrado: Principal (guitarra y guitarra eléctrica)
tono: G
Intro:
                            G
E|-------7--------5-------------7-------5-----|
B|-------3-----3-------3--------3----3--------|
G|---4-------4-------4------4------4----------|
D|--------------------------------------------|
A|--------------------------------------------|
E|-3----------------------3-------------------|

                            C9
E|-------------7-------5-------------7--------5--------|
B|-------------3----3-------3--------3------3----------|
G|----------3-----3-------3-------3-------3------------|
D|-----------------------------------------------------|
A|-0--2--3---------------------3-----------------------|
E|-----------------------------------------------------|

                     Em7                     D                C9                 D
E|-------5-------5---------|------5------5----------|-------5-----|---------2--3--|
B|-------3-----3------3----|------3----3------3-----|-------3-----|---------------|
G|---0-------0------0------|----0----0------0-------|----3-----3--|----0----------|
D|-------------------------|------------------------|-------------|---------------|
A|-------------------------|------------------------|-3-----------|-5-------------|
E|-0-----------------------|-5----------------------|-------------|---------2--3--|

Riff:

E|-----------|
B|-----------|
G|-----------|
D|-----------|
A|--0--2--3--|
E|-----------|

Variação de "D":

E|---------3p2--|
B|------3-------|
G|----2---------|
D|-0------------|
A|--------------|
E|--------------|

(Aplicar seguinte variação em todos os "D")

     G
Your hand fits in mine

Like it's made just for me
(Riff) C9
But bear this in mind

It was meant to be
         Em7
And I'm joining up the dots
            D
With the freckles on your cheeks
       C9         D             G
And it all makes sense to me

   G
I know you've never loved

The crinkles by your eyes
   (Riff) C9
When you smile,

You've never loved

Your stomach or your thighs
     Em7
The dimples in your back
         D
At the bottom of your spine
          C9       D             G
But I'll love them endlessly

Am7                        C
I won't let these little things
     Em7           D  (com variação)
Slip out of my mouth
         Am7
But if I do
       C
It's you
         Em7
Oh it's you
             D
They add up to
        C
I'm in love with you
                       G
And all these little things

E|--------|--------| 2x
B|------3-|-----3--|
G|--------|---0----|
D|----0---|-0------|
A|--------|--------|
E|--3-----|--------|

  G
You can't go to bed

Without a cup of tea
(Riff) C9
And maybe that's the reason

That you talk in your sleep
         Em7
And all those conversations
         D
Are the secrets that I keep
          C9        D              G
Though it makes no sense to me

    G
I know you've never loved
                   (Riff) C9
The sound of your voice on tape

You never want to know how much you weigh
Em7                          D
You still have to squeeze into your jeans
     C9         D
But you're perfect to me

Am7                        C
I won't let these little things
     Em7           D
Slip out of my mouth
         Am7
But its true
       C
It's you
      Em7
it's you
             D
They add up to
        C
I'm in love with you

                      Am7
And all these little things
              C
You'll never love yourself
     G                D
Half as much as I love you

Am7           C                    G
You'll never treat yourself right darlin'
                 D
But I want you to

Am7             C
If I let you know
       G        D
I'm here for you

Am7            C                  G        D
Maybe you'll love yourself like I love you

Oh...

Am7                  C
I've just let these little things
      Em7          D
Slip out of my mouth
             Am7
Because it's you
         C
Oh it's you
       Em7
It's you
            D
They add up to
            C
And I'm in love with you

                      Am7
And all these little things


Am7                        C
I won't let these little things
     Em7           D
Slip out of my mouth
         Am7
But its true
       C
It's you
      Em7
it's you
             D
They add up to
        C
I'm in love with you
                      G
And all your little things.
Composición de Ed Sheeran
Colaboración y revisión:
  • Thaís Pilar
  • Jessica
3.901 vistas
    • ½ Tono
    • A
    • Bb
    • B
    • C
    • Db
    • D
    • Eb
    • E
    • F
    • F#
    • G
    • Ab
  • Agregar a la lista

    0 comentarios

    Ver todos los comentarios

    ¿Lograste tocar?

    5 Tocaron 0 Aún no

    ¡Graba un video tocando Little Things y envíanoslo!

    00:00 / 00:00
    Outros vídeos desta música
    Repetir Calidad Automático
    Outros vídeos desta música
    00:00 / 00:00
    Automático
    OK