Cifra Club

Perfect Duet (feat. Beyoncé)

Ed Sheeran

Cifrado: Principal (guitarra y guitarra eléctrica)
tono: A (con acordes en la forma de Ab) Capotraste en 1ª casa
[Dedilhado]

   G
E|----------------------------|
B|-------3-----------3--------|
G|-----0---0-------0---0------|
D|---0-------0---0-------0----|
A|----------------------------|
E|-3-----------3--------------|

   Em
E|----------------------------|
B|-------0-----------0--------|
G|-----0---0-------0---0------|
D|---3-------3---3-------3----|
A|----------------------------|
E|-0-----------0--------------|

   C
E|----------------------------|
B|-------1-----------1--------|
G|-----0---0-------0---0------|
D|---2-------2---2-------2----|
A|-3-----------3--------------|
E|----------------------------|

   D
E|-------2-3----------2-3-----|
B|-----3-----3------3-----3---|
G|---2--------2---2---------2-|
D|-0------------0-------------|
A|----------------------------|
E|----------------------------|

[Primeira Parte]

           G
I found a love
     Em
For me
                 C
Oh darling, just dive right in
              D
And follow my lead
                G
Well, I found a girl
          Em
Beautiful and sweet
                C
Oh, I never knew you were the someone
            D
Waitin' for me
                                 G
'Cause we were just kids when we fell in love
            Em
Not knowin' what it was
           C                G  D
I will not give you up this time
             G
But darling, just kiss me slow
              Em
Your heart is all I own
            C                    D
And in your eyes, you're holding mine
 
[Refrão]

      Em    C             G
Baby, I'm dancing in the dark
     D              Em
With you between my arms
C               G
Barefoot on the grass
D                 Em
Listening to our favourite song
         C                 G
When you said you looked a mess
   D                      Em
I whispered underneath my breath
C
But you heard it
         G        D           G
Darling, you look perfect tonight

E|----------------------------------3p2-------|
B|------------------0--------1----------------|
G|------------------------0---------2---------|
D|---0-----0----0--------2--------------------|
A|--2-----2----2--------3---------------------|
E|-3-----2----0-------------------------------|

[Segunda Parte]

                G
Well, I found a man
              Em
Stronger than anyone I know
             C
He shares my dreams
                                  D
I hope that someday we'll share a home
          G
I found a love
   Em
To carry more than just my secrets
         C
To carry love, to carry children
       D
Of our own
                             G
We are still kids, but we're so in love
         Em
Fightin' against all odds
             C               G  D
I know we'll be alright this time
         G
Darling, just hold my hand
              Em
Be your girl, you'll be my man
             C              D
And I see my future in your eyes
 
[Refrão]

       Em    C             G
Baby, I'm dancing in the dark
     D              Em
With you between my arms
C               G
Barefoot on the grass
D                 Em
Listening to our favourite song
       C               G
When I saw you in that dress
   D          Em
Looking so beautiful
  Em       C
I don't deserve this,
          G        D            G
Darling you look perfect tonight

( G  Em  C  D )
 
E|------------------------------------------3p2--------|
B|------3--------3--------3----------1-----------------|
G|----4--------4--------4---------0---------2----------|
D|--5--------4--------2---------2----------------------|
A|----------------------------3------------------------|
E|-----------------------------------------------------|
 
[Refrão]

      Em    C             G
Baby, I'm dancing in the dark
     D              Em
With you between my arms
C               G
Barefoot on the grass
D                 Em
Listening to our favourite song
       C               G
I have faith in what I see
           D             Em
Now I know I have met an angel
   C
In person
    G         D
And she looks perfect
   C        C
No I don't deserve this
    D               G
You look perfect tonight
 
E|----------------------------------3p2---2--------3----|
B|------------------0--------1--------------------------|
G|------------------------0---------2-------------------|
D|---0-----0----0--------2---------------------0--------|
A|--2-----2----2--------3--------------------2----------|
E|-3-----2----0----------------------------3------------|
Composición de Beyoncé / Ed Sheeran / Matthew Sheeran
Colaboración y revisión:
  • Lucas Salazar
164 vistas
    • ½ Tono
    • A
    • Bb
    • B
    • C
    • Db
    • D
    • Eb
    • E
    • F
    • F#
    • G
    • Ab
  • Agregar a la lista

    0 comentarios

    Ver todos los comentarios

    ¿Lograste tocar?

    0 Tocaron 0 Aún no

    ¡Graba un video tocando Perfect Duet (feat. Beyoncé) y envíanoslo!

    00:00 / 00:00
    Otros videos de esta canción
    Repetir Calidad Automático
    Otros videos de esta canción
    00:00 / 00:00
    Automático
    OK