Enviar cifraEntrar

Tenerife Sea

Ed Sheeran

Acordes: Principal
reproducciones 5.135
Tono: G# (con acordes en la forma de E) Capo en 4ª casa
(A 3ª corda - corda sol, deve ser afinada em mi, ou seja, um tom e meio mais grave)

Intro:  ( E5  F#4(7)  A9 ) (3x)
         C#m7  B4  A9

Parte 1 de 3 - 3x:

   E5      F#4(7)  A9
E|------------------------------------------|
B|-------0-------0---------0h2p0-------0----|
G|---0-------0-------0---0---------0--------|
D|-2---2-------4-------2---------2---2------|
A|-2---------------0------------------------|
E|-0-------2--------------------------------|


Parte 2 de 3:

   C#m7    B4
E|------------------------------------------|
B|-------0-------0--------------------------|
G|---0-------0------------------------------|
D|-----6-------4----------------------------|
A|-4-------2--------------------------------|
E|------------------------------------------|


Parte 3 de 3:

   A9
E|------------------------------------------|
B|--------0---------0---------0---------0---|
G|----0---------0---------0---------0-------|
D|------2----2----2----2----2----2----2-----|
A|-0----------------------------------------|
E|------------------------------------------|


Primeira Parte:

E5              F#4(7)   A9
   You look so wonderful in your dress
E5              F#4(7)     A9
   I love your hair like that
E5             F#4(7)
   The way it falls
        A9
on the side of your neck
C#m7             B4           A9
     Down your shoulders and back

E5            F#4(7)
   We are surrounded
   A9
By all of these lies
     E5         F#4(7)   A9
And people who talk too much
E5                  F#4(7)
   You've got that kind
    A9
Of look in your eyes
       C#m7        B4           A9
As if no one knows anything but us

Primeira Parte:

Parte 1 de 4 - 2x:

   E5      F#4(7)  A9
E|------------------------------------------|
B|-------0-------0---------0h2p0-----0------|
G|---0-------0-------0---0-------0----------|
D|-2---2-------4-------2-----------2--------|
A|-2---------------0------------------------|
E|-0-------2--------------------------------|


Parte 2 de 4:

   E5      F#4(7)  A9
E|------------------------------------------|
B|-------0-------0-------0---------0--------|
G|---0-------0-------0---------0------------|
D|-2---2-------4-------2----2----2----------|
A|-2---------------0------------------------|
E|-0-------2--------------------------------|


Parte 3 de 4:

   C#m7    B4
E|------------------------------------------|
B|-------0-------0--------------------------|
G|---0-------0------------------------------|
D|-----6-------4----------------------------|
A|-4-------2--------------------------------|
E|------------------------------------------|


Parte 4 de 4:

   A9
E|------------------------------------------|
B|--------0---------0-----------------------|
G|----0---------0---------------------------|
D|------2----2----2-------------------------|
A|-0----------------------------------------|
E|------------------------------------------|


Pré-refrão:

  A9                E5           B4
Should this be the last thing I see
   A9                     E5        B4
I want you to know it's enough for me
       A9                  E5
'Cause all that you are is all 
                B4
That I'll ever need

Pré-refrão:

Parte 1 de 3 - 2x:

   A9                  E5        B4
E|------------------------------------------|
B|--------0---------0---------0---------0---|
G|----0---------0---------0---------0-------|
D|------2----2----2---------2---------4-----|
A|-0-----------------------------2----------|
E|---------------------0--------------------|


Parte 2 de 3:

   A9                  E5
E|------------------------------------------|
B|--------0---------0---------0---------0---|
G|----0---------0---------0---------0-------|
D|------2----2----2---------2----2----2-----|
A|-0----------------------------------------|
E|---------------------0--------------------|


Parte 3 de 3:

   B4
E|------------------------------------------|
B|--------0---------0---------0---------0---|
G|----0---------0---------0---------0-------|
D|------4----4----4----4----4----4----4-----|
A|-2----------------------------------------|
E|------------------------------------------|


Refrão:
           E5  F#4(7)  A9
I'm so in love
       E5  F#4(7)  A9
So in love
       E5  F#4(7)  A9
So in love
       E5  F#4(7)  A9
So in love

Segunda Parte:

E5              F#4(7)   A9
   You look so beautiful in this light
E5            F#4(7)     A9
   Your silhouette over me
E5              F#4(7)
   The way it brings out
      A9
The blue in your eyes
        C#m7    B4  A9
Is the tenerife    sea

    E5          F#4(7)
And all of the voices 
    A9
Surrounding us here
           E5          F#4(7)      A9
They just fade out as you take a breath
 E5           F#4(7)     A9
Just say the word and we'll disappear
C#m7      B4    A9
Into the wilderness

Pré-refrão:

  A9                E5           B4
Should this be the last thing I see
   A9                     E5        B4
I want you to know it's enough for me
       A9                  E5
'Cause all that you are is all 
                B4
That I'll ever need

Refrão:
           E5  F#4(7)  A9
I'm so in love
       E5  F#4(7)  A9
So in love
       E5  F#4(7)  A9
So in love
       E5  F#4(7)  A9
So in love

Terceira Parte:

 C#m7  A9    E5   B4
Lumi___ère, dar__ling
 C#m7  A9        B4
Lumi___ère over me

 C#m7  A9    E5   B4
Lumi___ère, dar__ling
 C#m7  A9        B4
Lumi___ère over me

 C#m7  A9    E5   B4
Lumi___ère, dar__ling
 C#m7  A9        B4
Lumi___ère over me

Terceira Parte:

Parte 1 de 4:

   C#m7             A9
E|------------------------------------------|
B|-------0-------0--------0-------0---------|
G|---0-------0--------0-------0-------------|
D|-----6-------6--------2-------2-----------|
A|-4-------4--------0-------0---------------|
E|------------------------------------------|


Parte 2 de 4:

   E5               B4
E|------------------------------------------|
B|-------0-------0--------0-------0---------|
G|---0-------0--------0-------0-------------|
D|-----2-------2--------4-------4-----------|
A|------------------2-------2---------------|
E|-0-------0--------------------------------|


Parte 3 de 4:

   C#m7             A9
E|------------------------------------------|
B|-------0-------0--------0-------0---------|
G|---0-------0--------0-------0-------------|
D|-----6-------6--------2-------2-----------|
A|-4-------4--------0-------0---------------|
E|------------------------------------------|


Parte 4 de 4:

   B4
E|------------------------------------------|
B|-------0-------0--------0-------0---------|
G|---0-------0--------0-------0-------------|
D|-----4-------4--------4-------4-----------|
A|-2-------2--------2-------2---------------|
E|------------------------------------------|


Pré-refrão:

  A9                E5           B4
Should this be the last thing I see
   A9                     E5        B4
I want you to know it's enough for me
       A9                  E5
'Cause all that you are is all 
                B4
That I'll ever need

Refrão:
           E5  F#4(7)  A9
I'm so in love
       E5  F#4(7)  A9
So in love
       E5    F#4(7)  A9
So in love, love,   love, love
       E5  F#4(7)  A9
So in love

Primeira Parte:

E5              F#4(7)   A9
   You look so wonderful in your dress
E5              F#4(7)     A9
   I love your hair like that
E5           F#4(7)    A9
   And in a moment I knew you were back
  • 1
  • 2
  • 3
  • 4
  • 5
  • 6
  • 7
  • 8
  • 9
  • 10
  • 11
  • 12
    Acordes para:

      0 comentarios

        mostrar mas comentarios

        ¿Conseguiste tocar?

        10tocaron1aún no

        ¡Grave un vídeo tocando Tenerife Sea y envie para nosotros!

        00:00 / 00:00
        outros vídeos desta música
        repetirqualidadeautomática
        • automática
        Outro vídeos desta música
          Capítulos
          • Tocando a música
          • Dicas Iniciais / Equipamentos
          • Acordes da música
          • Tocando a Introdução
          • Introdução - Parte 1 de 3
          • Introdução - Parte 1 de 3
          • Introdução - Parte 3 de 3
          • Tocando a Primeira Parte
          • Primeira Parte - Parte 1 de 4
          • Primeira Parte - Parte 2 de 4
          • Primeira Parte - Parte 3 de 4
          • Primeira Parte - Parte 4 de 4
          • Tocando o Pré-Refrão
          • Pré-Refrão - Parte 1 de 3
          • Pré-Refrão - Parte 2 de 3
          • Pré-Refrão - Parte 3 de 3
          • Tocando o Refrão
          • Dicas 2
          • Tocando Segunda Parte - Terceira Parte
          • Terceira Parte - Parte 1 de 4
          • Terceira Parte - Parte 2 de 4
          • Terceira Parte - Parte 3 de 4
          • Terceira Parte - Parte 4 de 4
          • Tocando o Pré-Refrão
          • Tocando Refrão - Final
          • Encerramento
          • Ficha Técnica
          00:00 / 00:00
          automática
          • automática
          Acordes para:guitarra
          dificuldadreproduccionescontribuciones
          1 versión de Guitar Proformatodownloadscontribución
          cerrarplay/pause subir/bajar velocidad
            Acordes para:guitarra
            acordes
            cerrar
            OK