Cifra Club

Thinking Out Loud

Ed Sheeran

Tab de bajo: Principal
reproducciones 455
Verso:

G|----------------------------------|
D|--------4-------------------------|
A|-----5--------------------4--5----|
E|------------3--5----5-------------|

Refrão: (People fall in love...)

G|-------------------------------------------------------|
D|-------------------------------------------------------|
A|--------------------5-5-5/7----------------------4-5-7-|
E|----0--0-0-2-3---5---------------0-0-2-3-5-5-----------|

Ponte: (Baby we found love...)

G|----------------------------------|
D|--9--7--5--4----------------------|
A|---------------------5------------|
E|-------------0---5----------------|
Colaboración y revision:
  • Daniel Oliveira

0 comentarios

    mostrar más comentarios

    ¿Conseguiste tocar?

    3tocaron0aún no

    ¡Graba un vídeo tocando Thinking Out Loud y envianoslo!

    00:00 / 00:00
    outros vídeos desta música
    repetirqualidadeautomática
    Outro vídeos desta música
      00:00 / 00:00
      automática
      OK