Cifra Club

Out Of Control

Edguy

Cifrado: Principal (guitarra y guitarra eléctrica)
tono: C
Intro:

: Em  : C  : Em : C  :

   E5                                 C5

E::-----:----------------------------:------------------------:12---------:
B::-----:----------------------------:12-------------------12-:-----------:
G::12~--:11~-----12-11-12-11---12-11-:------------------12----:-----------:
D::-----:----------------------------:---------------12-------:-----------:
A::-----:----------------------------:------------------------:-----------:
E::-----:----------------------------:------------------------:-----------:
   A.H~~~~~~~~~~~~~~~~~~~~~~~~~~~~~~~~~~~~~~~~~~~~~~~~~~~~~~~~~~~

   E5
E::------------------------------------------------:--------------------------------------:
B::------------------------------------------------:--------------------------------------:
G::12-12-12-12-12-12-12-12-11-11-11-11-11-11-12-12-:9-9-9-9-9-9-9-9-----------------------:
D::------------------------------------------------:----------------12-12-12-12-12-12-9-9-:
A::------------------------------------------------:--------------------------------------:
E::------------------------------------------------:--------------------------------------:

   C5                                                        Note: The string is only hit once.
E::------------------------------------------------:----------------------------------:------:
B::------------------------------------------------:------------------------A.H-------:------:
G::------------------------------------------------:------------------------11pb12r11b:12~---:
D::10-10-10-10-10-10-10-10-10-10-10-10-10-10-10-10-:10-10-10-10-10-10-10-10-----------:------:
A::------------------------------------------------:----------------------------------:------:
E::------------------------------------------------:----------------------------------:------:

   Rhythm guitar:
E::--------------------------------:--------------------------------:
B::--------------------------------:--------------------------------:
G::--------------------------------:--------------------------------:
D::--------------------------------:--------------------------------:
A::2---2---2---2---2---2---2-2-2-2-:2---2---2---2---2---2---2-2-2-2-:
E::0---0---0---0---0---0---0-0-0-0-:0---0---0---0---0---0---0-0-0-0-:
 ::P.M~~~~~~~~~~~~~~~~~~~~~~~~~~~~~~~~~~~~~~~~~~~~~~~~~~~~~~~~~~~~~~:
 ::                                                                 :
E::--------------------------------:--------------------------------:
B::--------------------------------:--------------------------------:
G::9-----------------------9-------:--------------------------------:
D::----------------------------9---:12--------9h12-9----------------:
A::--------------------------------:--------------------------------:
E::--------------------------------:--------------------------------:

E::--------------------------------:--------------------------------:
B::--------------------------------:--------------------------------:
G::--------------------------------:--------------------------------:
D::5---5---5---5---5---5---5-5-5-5-:5---5---5---5---5---5---5-5-5-5-:
A::3---3---3---3---3---3---3-3-3-3-:3---3---3---3---3---3---3-3-3-3-:
E::--------------------------------:--------------------------------:
 ::P.M~~~~~~~~~~~~~~~~~~~~~~~~~~~~~~~~~~~~~~~~~~~~~~~~~~~~~~~~~~~~~~:
 ::                                                                 :
E::-----------------------------------------------------------------:
B::-----------------------------------------------------------------:
G::-----------------------------------------------------------------:
D::-----------------------------------------------------------------:
A::-----------------------------------------------------------------:
E::-----------------------------------------------------------------:

Composición de Edguy / Tobias Sammet
Colaboración y revisión:
  • Taino Vieira
28 vistas
    • ½ Tono
    • A
    • Bb
    • B
    • C
    • Db
    • D
    • Eb
    • E
    • F
    • F#
    • G
    • Ab
  • Agregar a la lista

    0 comentarios

    Ver todos los comentarios

    ¿Lograste tocar?

    0 Tocaron 0 Aún no

    ¡Graba un video tocando Out Of Control y envíanoslo!

    00:00 / 00:00
    Outros vídeos desta música
    Repetir Calidad Automático
    Outros vídeos desta música
    00:00 / 00:00
    Automático
    OK