Cifra Club

All Sparks

Editors

Tab de bajo: Principal
Selo Cifra Club: esta cifra foi revisada para atender aos critérios oficiais da nossa Equipe de Qualidade.
Tabbed By : ben shaw
e-mail: B.W.S*
you need to add on: .ac.uk

Tuning: E A D G

Intro/Verse     x 4               x 2               x 2
G|-----------------|-----------------|-----------------|
D|-----------------|-----------------|-----------------|
A|-9-9-7h9-9-9-9-9-|-7-7-----4-4-2-2-|-9-9-7h9-9-9-9-9-| repeat x 4
E|-----------------|-----5-5---------|-----------------|

Chorus 1
G|---------------------------------|
D|---------------------------------|
A|-------------------------7-7-9-7-| x 3
E|-5-5-5-5-5-5-5-5-9-9-9-9---------|

G|---------------------------------|
D|---------------------------------|
A|---------------------------------| x 1
E|-5-5-5-5-5-5-5-5-9-9-9-9-2-2-2-2-|

Intro/Verse x 3

Chorus 2
G|---------------------------------|
D|---------------------------------|
A|-------------------------7-7-9-7-| x 3
E|-5-5-5-5-5-5-5-5-9-9-9-9---------|

G|---------------------------------|
D|---------------------------------|
A|-------------------------7-7-7-7-| x 1
E|-5-5-5-5-5-5-5-5-9-9-9-9---------|

Bass Solo        x 3
G|------------------|------------------|
D|------------------|------------------|
A|-7-7-h9---12-11-9-|-7-7-h9-----7---7-|
E|------------------|------------------|

(guitar comes back in)
                 x 4               x 2                x 2
G|------------------|-----------------|------------------|
D|------------------|-----------------|------------------|
A|-7-7-h9---12-11-9-|-7-7-----4-4-2-2-|-7-7-h9---12-11-9-| repeat x 2
E|------------------|-----5-5---------|------------------|

Chorus 3
G|---------------------------------|
D|---------------------------------|
A|---------------------------------| x 1
E|-5-5-5-5-5-5-5-5-9-9-9-9-2-2-2-2-|

G|---------------------------------|
D|---------------------------------|
A|-------------------------7-7-9-7-| x 3
E|-5-5-5-5-5-5-5-5-9-9-9-9---------|

(backing vocals arrive)
G|---------------------------------|
D|---------------------------------|
A|---------------------------------| x 4
E|-5-5-5-5-5-5-5-5-9-9-9-9-2-2-2-2-|

End on
G|------|
D|------|
A|--9~--|
E|------|

This was tabbed using the album version, so apologies if the single's
any different. Any comments just email me.

| h  hammer on
| ~  vibrato (hold)
Otros videos de esta canción
    14 exhibiciones

    Afinação da cifra

    Afinador online

    Ops (: Contenido disponible solo en portugués.
    OK