Cifra Club

Escape The Nest

Editors

Tab de bajo: Principal
Selo Cifra Club: esta cifra foi revisada para atender aos critérios oficiais da nossa Equipe de Qualidade.
tono: Afinación:
Verse 1
G|-----------------------------------------------------------------|
D|-----------------------------------------------------------------|
A|-----------3-----3/8-8-8-8-8-10----------------------------------|  
D|-5-5-5-5-5---5-3----------------10-8-----------------------------|

Instead of playing 3/8 and 10 on the A-string, you can also choose
to play 3/13 and 15 on the D string.


Verse 2
G|-----------------------------------------------------------------|
D|-----------------------------------------------------------------|
A|-----------------------------------------------------------------|  
D|-10-10-10-10-10-10-10-10-7-7-7-7-7-7-7-7-------------------------|


Chorus
G|-----------------------------------------------------------------|
D|-----------------------------------------------------------------|
A|--------------------------------5555-888888888888-10-10-10-10----|  
D|-555555555555-7777-888888888888----------------------------------|


Verse 1	x6
Verse 2	x1
Verse 1	x4
Verse 2	x1
Verse 1	x2
Chorus	x2
Verse 1	x6
Verse 2	x1
Verse 1	x2
Chorus	x2
Verse 1	x4
no bass from 3:18 - 3:50
Verse 1	x8
Otros videos de esta canción
    499 exhibiciones

    Afinación de cifrado

    Afinador online

    OK