Cifra Club

Find Yourself A Safe Place

Editors

Cifrado: Principal (guitarra y guitarra eléctrica)
tono: C
From: "Bugsan" 
=======================================
Simple song but really nice!!

==============================================
| ================= INTRO ================== |
==============================================

Chris's guitar, distortion

E||--------------------------|
B||--------------------------|
G||--------------------------| /----\
D||--------5--5--------5--5--| | x8 |
A||--7--7--------7--7--------| \----/
E||--------------------------|

==============================================
| ================= VERSE ================== |
==============================================

"You don't give as good as you get....."
E||--------------------------|--------------------------|
B||--------------------------|--------------------------|
G||--------------------------|--------------5--5--4--4--| /----\
D||--2--2--2--2--2--2--2--2--|--2--2--2--2--------------| | x4 |
A||--------------------------|--------------------------| \----/
E||--------------------------|--------------------------|

==============================================
| ================= CHORUS ================= |
==============================================

"You just repeat yourself, stuck in another world...."
E||-----------------|---------8-8-7-7-|-----------------|---------8-8-7-7-|
B||-8-8-8-8-8-8-8-8-|-8-8-8-8---------|-----------------|-----------------|
G||-----------------|-----------------|-9-9-9-9-9-9-9-9-|-9-9-9-9---------| /----\
D||-----------------|-----------------|-----------------|-----------------| | x2 |
A||-----------------|-----------------|-----------------|-----------------| \----/
E||-----------------|-----------------|-----------------|-----------------|

POST CHORUS:
============

E||--------------------------|
B||--------------------------|
G||--------------------------| /----\
D||--------5--5--------5--5--| | x8 |
A||--7--7--------7--7--------| \----/
E||--------------------------|


00:00 / 00:00
Otros videos de esta canción
Repetir
Otros videos de esta canción
Compositor no encontrado.
17 exhibiciones
    • ½ Tono
    • A
    • Bb
    • B
    • C
    • Db
    • D
    • Eb
    • E
    • F
    • F#
    • G
    • Ab
  • Agregar a la lista
    00:00 / 00:00
    OK