Cifra Club

Lights

Editors

Tab de bajo: Principal
Intro (Guitar X2)

Verse
G|------------------------|
D|------------------------| X4
A|-77910-5555-------------|
E|------------77-33-55-00-|

Chorus
G|--------------------|
D|--------------------| X3
A|-55555555-7777-3333-|
E|--------------------|

G|-------------------------|
D|-------------------------|
A|-555555555-7777-10101010-|
E|-------------------------|

Verse
G|------------------------|
D|------------------------| X8
A|-77910-5555-------------|
E|------------77-33-55-00-|

Chorus
G|--------------------|
D|--------------------| X3
A|-55555555-7777-3333-|
E|--------------------|

G|-------------------------|
D|-------------------------|
A|-555555555-7777-10101010-|
E|-------------------------|

Bridge
G|------------------|
D|------------------| X2
A|-7-10-2-3-7-9-2-3-|
E|------------------|

G|------------------------|
D|------------------------| X4
A|-77910-5555-------------|
E|------------77-33-55-00-|

Verse
G|------------------------|
D|------------------------| X4
A|-77910-5555-------------|
E|------------77-33-55-00-|





Chorus
G|--------------------|
D|--------------------| X3
A|-55555555-7777-3333-|
E|--------------------|

G|-------------------------|
D|-------------------------|
A|-555555555-7777-10101010-|
E|-------------------------|

G|--------------------|
D|--------------------| X3
A|-55555555-7777-3333-|
E|--------------------|

G|-------------------------|
D|-------------------------|
A|-555555555-7777-10101010-|
E|-------------------------|

That’s what I think it goes like
Please rate it and email me if you have any problems, *

Adam Vaughan
00:00 / 00:00
Otros videos de esta canción
Repetir
Otros videos de esta canción
Compositor no encontrado.
37 exhibiciones
00:00 / 00:00
OK