Cifra Club

Munich

Editors

Bass tab: Versão 3
Bassist: Russell Leetch

Verse: Join In After 12 Seconds
G|-----------------------------------------------------------------|
D|-----------------------------------------------------------------|
A|--3-3-3-3-3-3-1-1------------------------------------------------|
E|------------------3-3-3-3-3-3-3-3-6-6-6-6-6-6-8-8-3-3-3-3-3-3-3-3| X6

Chorus
G|-------------------------------------------------------------------------------|
D|-------------------------------------------------------------------------------|
A|--3-3-3-3-3-3-3-3-6-6-6-6-6-6-6-6-10-10-10-10-10-10-10-10-13-13-13-10-10-10----|
E|----------------------------------------------------------------------------11\|

G|----------------------------------------------------------12-12-12-8-8-8----|
D|-------------------------------------------------------------------------10\|
A|--3-3-3-3-3-3-3-3-6-6-6-6-6-6-6-6-10-10-10-10-10-10-10-10-------------------|
E|----------------------------------------------------------------------------| X2

Verse
G|-----------------------------------------------------------------|
D|-----------------------------------------------------------------|
A|--3-3-3-3-3-3-1-1------------------------------------------------|
E|------------------3-3-3-3-3-3-3-3-6-6-6-6-6-6-8-8-3-3-3-3-3-3-3-3| X6

Chorus
G|-------------------------------------------------------------------------------|
D|-------------------------------------------------------------------------------|
A|--3-3-3-3-3-3-3-3-6-6-6-6-6-6-6-6-10-10-10-10-10-10-10-10-13-13-13-10-10-10----|
E|----------------------------------------------------------------------------11\|

G|----------------------------------------------------------12-12-12-8-8-8----|
D|-------------------------------------------------------------------------10\|
A|--3-3-3-3-3-3-3-3-6-6-6-6-6-6-6-6-10-10-10-10-10-10-10-10-------------------|
E|----------------------------------------------------------------------------| X2

Bass guitar stops at 2:24

Bridge: Join back in at 2:48
G|-----------|
D|-----------|
A|--10-10-10\|
E|-----------| 

Chorus
G|-------------------------------------------------------------------------------|
D|-------------------------------------------------------------------------------|
A|--3-3-3-3-3-3-3-3-6-6-6-6-6-6-6-6-10-10-10-10-10-10-10-10-13-13-13-10-10-10----|
E|----------------------------------------------------------------------------11\|

G|----------------------------------------------------------12-12-12-8-8-8----|
D|-------------------------------------------------------------------------10\|
A|--3-3-3-3-3-3-3-3-6-6-6-6-6-6-6-6-10-10-10-10-10-10-10-10-------------------|
E|----------------------------------------------------------------------------| X2

End On
G|----|
D|----|
A|--3-|
E|----| 

Tabbed by RandomHeroX (Jack Layzell)
E-mail * for any suggestions :)
00:00 / 00:00
Other videos of this song
Repeat
Other videos of this song
Composed by Chris Urbanowicz / Ed Lay / Russell Leetch / Tom Smith
5 views
00:00 / 00:00
OK